Acordes de Guitarra » L »Lazcano Malo » El hombre fuerte de hojalata (Tab)

El hombre fuerte de hojalata
Lazcano Malo

  • Letra y Acordes
       D                    D/C# Cadd9                Bm7
    Yo era un hombre de hojalata buscando al mago de oz
      G              D/F# Em              A7
    porque no sentía nada y quería un corazón.
     D            D/C#    Cadd9           Bm7
    era más inteligente que el espantapájaros
       G              D/F#    G           A7   D
    y era mucho más valiente que mi amigo el león.
      C            G         D  C               G         Em  A Asus4
    pero eso de nada me sirvió aquel día en que ella se largo
    
    (CORO)
                    D        G    D/F#  Em7  A7
    Y ahora soy un tonto el tonto más cobarde,
                 D        G    D/F#  Em7  C#m7/b5 F#7
    por no entregarme por no saber amarle.
            Bm       Bm/A         E7/G# G            Em
    y que ironía su adiós me desbarata    después de ser
                     A      D  C7 F C  Dm A# A#/A Gm7 F Gm7 C7 A7
    el hombre fuerte de hojalata.
    
  • Letra y Acordes
       D                      A    Bm                 G
     yo era un hombre de hojalata buscando al mago de oz
      D               A   G         A       D
    porque no sentia nada y queria un corazon.  
     D             A       Bm            G     D
    era mas inteligente que el espantapajaros y era mucho mas
     A        G           A    G
    valiente que mi amigo el leon.
      C            G       D      C          G
     pero eso de nada me sirvio aquel dia en que 
               D         B7
     ella se largo. (sube de tono pones el B7 para subir a mi)
                    (CORO)
                    E        B         C#m  A
    y ahora soy un tonto el tonto mas cobarde, por no
        E           B        C#m   A
    entregarme por no saber amarle.
            C#m    G#m          A
    y que ironia su adios me desbarata despues de ser
                     B      E 
    
  • Tablatura
    Dedicada a Zhulka Lizette con todo mi cariño…  220810
    
    
    
    INTRO
    
    1|-------2--|-----------|--0--------|-----3-----|--------3--||E
    2|-----3----|---3-------|3-----3----|---1-----1-|------1----||B
    3|---2------|-2-------2-|----2------|-0-----0---|----0-----0||G
    4|-0-------0|-----0-----|-----------|-----------|-----------||d
    5|----------|-------4---|--------4-3|-----------|3-2--------||a
    6|----------|-----------|-----------|-----------|-----------||e
    
    1|----------|----3------|---------0-|-----------|----0---0--||E
    2|-1--------|3-------3--|-----3-----|---3-------|3----------||B
    3|--------0-|-----------|---2-------|---------0-|-----------||G
    4|--0---0---|-----------|-0---------|-------0---|-----------||d
    5|----------|-----------|-----------|-----------|-----------||a
    6|----3-----|--3---3---2|-------2---|-2---0-----|--0---0----||e
    
    
  • +
    ¡Colabora con nosotros!
    Envíanos tu versión de esta canción

Letra de El hombre fuerte de hojalata
yo era un hombre de hojalata buscando al mago de oz
porque no sentia nada y queria un corazon.
era mas inteligente que el espantapajaros y era mucho mas
valiente que mi amigo el leon.
pero eso de nada me sirvio aquel dia en que
ella se largo. (sube de tono pones el B7 para subir a mi)
y ahora soy un tonto el tonto mas cobarde, por no
entregarme por no saber amarle.
y que ironia su adios me desbarata despues de ser
el hombre fuerte de hojalata.
(baja de tono otra vez a RE poniendo un LA7)
por sentirme vulnerable ni una lagrima solte por
quererme ver valiente miedo no le demostre no fui
tan inteligente y hoy no se que voy a hacer el camino
amarillo no es el mismo sin esa mujer. (sube otravez de tono)
(este es el fin)
yo era un hombre de hojalata que anhelaba un corazon me di
cuenta que tenia hasta que ella lo rompiooo.
bueno raza ojala les guste cualquier comentario escribanme



© LaCuerda.net · aviso legal · privacidad · contacto