Acordes de Guitarra » L »Lagartos » Que Güeva (Tab)

Que Güeva
Lagartos

Letras, Acordes y Tabs para Guitarra, Bajo y Ukulele

  • INTRO
    G|------------------|--------------|(Solamente la guitarra)
    D|------------------|--------------|
    A|--0-0-3-3-0-0-----|--0-0-3-3--5--|
    E|--------------3-0-|--------------|
    
    G|-----------------|-----------------|-----------------|-----|
    D|-----------------|-----------------|-----------------|-----|
    A|-0-0-3-3-0-0-----|-0-0-3-3-0-0-----|-0-0-3-3-0-0-----|--5--|
    E|-------------3-0-|-------------3-0-|-------------3-0-|-----|
    
    G|-----------------|-----------------|-----------------|----------|
    D|-----------------|-----------------|-----------------|----------|
    A|-0-0-3-3-0-0-----|-0-0-3-3-0-0-----|-0-0-3-3-0-0-----|-3-3-3--3-|
    E|-------------3-0-|-------------3-0-|-------------3-0-|----------|
    
    G|------------------|--------|
    D|------------------|--------|
    A|--0-0-3-3-0-0-----|--3--5--|
    E|--------------3-0-|--------|
    
    G|------------------|-----------|
    D|------------------|-----------|
    A|--0-0-3-3-0-0-----|-3-3-3--15-|
    E|--------------3-0-|-----------|
    
    G|-----------------------|--------
  • +
    ¡Colabora con nosotros!
    Envíanos tu versión de esta canción






[Que Güeva chords][Que Güeva cifra]
© LaCuerda.net · aviso legal · privacidad · es · en · pt · contacto
DINAMICO