Acordes de Guitarra » L »Lagartos » Metro busco amor (Tab)

Metro busco amor
Lagartos

Letras, Acordes y Tabs para Guitarra, Bajo y Ukulele

  • Introducción: A F#m D / A F#m D - A
    
           F#m 
    Voy a subirme al metro
          D                          A 
    para ver si me vuelvo a enamorar
             F#m 
    Voy a subirme al metro
           B                E 
    a ver si de tí me puedo olvidar
              F#m 
    Y de tu amor, 
             G          F#m         E 
    y tu maldita indecisión... Corazón...
            F#m 
    Y del amor
                 G           F#m         E 
    que hubo la máxima expresión, del dolor
      A   F#m  D - D 
    ¡Hey!...
    
  • E |-------------------------------------------------------------|
    B |--10-10-10-10---9----10-------9---10---12--10--9-------------|
    G |--------------/----/-------X2---/----/----/---/--------------|
    D |---7--7--7--7---6----7--------6---7----9---7---6-------------|
    A |-------------------------------------------------------------|
    E |-------------------------------------------------------------|
    
    
    E |-------------------------------------------------------------|
    B |--10-10-10-10---9----10-------9---10---14--12---10-----------|
    G |--------------/----/-------X2---/----/----/---/--------------|
    D |---7--7--7--7---6----7--------6---7----11---9---7------------|
    A |-------------------------------------------------------------|
    E |-------------------------------------------------------------|
    
    acordes
    
    
         A5  F#5  C#5 D5  E5  B5  E5* F#5*  G5*
    E |----|----|----|--|----|---|---|---|---|
    
  • +
    ¡Colabora con nosotros!
    Envíanos tu versión de esta canción

Letra de Metro busco amor
Voy a subirme al metro
para ver si me vuelvo a enamorar
Voy a subirme al metro
a ver si de tí me puedo olvidar
Y de tu amor,
y tu maldita indecisión... Corazón...
Y del amor
que hubo la máxima expresión, del dolor
¡Hey!...
Voy a subirme al metro
a ver si así te puedo arrancar de mí
Porque entre tanta gente
sé que mil historias voy a inventar...
Debo olvidar, a tu sonrisa
y su luz... A su luz
Y de tus ojos,
el negro brillo de tus ojos, mmm...
Hoy en el metro busco amor,
hoy en el metro busco amor,
lo que el suicida se perdió.
Voy a subirme al metro
a ver si te puedo arrancar de mí
Porque entre tanta gente
sé que mil historias voy a inventar...
Debo olvidar, a tu sonrisa
y su luz... Y su luz
Y de tus ojos
el negro brillo de tus ojos, mmm...
Hoy en el metro busco amor,
hoy en el metro busco amor,
hoy en el metro busco amor,
amor, amor, amor, amor, amor,
hoy en el metro empiezo
a buscar amor...
Si no el suicida seré yo.
Líricas: A pausa / A pausa
Amor...
Hoy en el metro busco amor,
hoy en el metro busco amor,
amor, amor, amor, amor, amor...
Hoy en el metro empiezo a buscar
a una chavita que esté muy rica,
que esté muy rica, sí, que sepa bien;
Hay gorditas y flaquitas,
morenitas, chaparritas y güeritas
y punketas, hippiositas
y darketas presumidas;
De todo hay en el metro del Señor.
Amor, amor, amor, amor, amor,
a toda hora y en todo lugar
Desde el Toreo hasta Taxqueña,
de Indios Verdes a Universidad...
En Guerrero, Tlaltelolco,
en Insurgentes,
Pino Suárez, Auditorio, Nativitas,
Camarones y Tepepan... ¡Tepepan!
me gustan más en Tepepan
Ay y ay y ay amor.




[Metro busco amor chords][Metro busco amor cifra]
© LaCuerda.net · aviso legal · privacidad · es · en · pt · contacto