Acordes de Guitarra » L »Los Ladrones Sueltos » Cuida mi alma (Tab)

Cuida mi alma
Los Ladrones Sueltos

Letras, Acordes y Tabs para Guitarra, Bajo y Ukulele

  •    C                       G              F
        Nena perdoname, si me domina la avaricia,
      C             G           F
       si te mezquino mis caricias,
                D              G
      si no te convido mis besos,
                 F         C               D                G
      si soy la causa del bostezo que va durmiendo a tu sonrrisa.
    
    
          C                         G        F
         Nena perdoname, si soy un muro inpenetrable,
       C         G           F
      si soy un juego inexplicable,
                 D         G
      si no te ilumino los días,
                F                C            D              G
      si mi torpeza es quien te enfría hasta congelarte los huesos.
    
    
    
  •   RE                       SIm          SOL
      Nena perdoname, si me domina la avaricia,
      RE         LA          SOL
      si te mezquino mis caricias,
                MI          LA
      si no te convido mis besos,
                 SOL         RE             MI              LA
      si soy la causa del bostezo que va durmiendo a tu sonrrisa.
    
    
      RE                         SIm          SOL
      Nena perdoname, si soy un muro impenetrable,
      RE          LA            SOL
      si soy un juego inexplicable,
                 MI         LA
      si no te ilumino los días,
                SOL               RE            MI            LA
      si mi torpeza es quien te enfría hasta congelarte los huesos.
    
    Coro:
    
  • --12~--    vibrato
    
    
    Intro:
    
    e--------------------------------------------------------------------------------|
    B--------------------------------------------------------------------------------|
    G-------------------4s11-11~--11h13-13-11s13-13~--11s13-11~--11h13-13-11s13-13~--|
    D--2h4-9~--9s11-9~---------------------------------------------------------------|
    A--------------------------------------------------------------------------------|
    E--------------------------------------------------------------------------------|
    
    e-------------------------------------------------------|
    B-------------------------------------------------------|
    G--4s11-11~------------------------------------8-8h11~--|
    D------------11s13-11~--11s13-13-11s9-9~--9-11----------|
    A-------------------------------------------------------|
    E-------------------------------------------------------|
    
    e-------------------------------------------------------|
    
  • +
    ¡Colabora con nosotros!
    Envíanos tu versión de esta canción

Letra de Cuida mi alma
Nena perdoname, si me domina la avaricia,
si te mezquino mis caricias,
si no te convido mis besos,
si soy la causa del bostezo que va durmiendo a tu sonrrisa.
Nena perdoname, si soy un muro impenetrable,
si soy un juego inexplicable,
si no te ilumino los días,
si mi torpeza es quien te enfría hasta congelarte los huesos.
Nena cuida mi piel, cuida mi alma
Nena cuida mi piel, cuida mi alma
Nena cuida mi piel, cuida mi alma
Nena cuida mi piel, cuida mi alma...
Nena regalame, todo lo que llevas adentro,
dame el petróleo de tu cuerpo,
dame la furia de tus labios,
dame el veneno que en verano va a derretirme con tus besos.
Nena regalame, la magia que lleva tu esencia,
la fórmula de tu sustancia
y tu secreto más inmenso,
dame tus aguas que me bañan en los placeres más intensos.
Nena cuida mi piel, cuida mi alma....etc.




[Cuida mi alma chords][Cuida mi alma cifra]
© LaCuerda.net · aviso legal · privacidad · es · en · pt · contacto