Acordes de Guitarra » K »Kortatu » Jimmy Jazz (Tab)

Jimmy Jazz
Kortatu

Letras, Acordes y Tabs para Guitarra, Bajo y Ukulele

  • G-G# E-F C-C#  G-G# D-D# G-G# C-C# G-G# D-D#
    
            G#
    La pasma anda buscando
    A Jimmy Jazz.
            F
    Lo tienes claro -dije-
          C#
    De qué vas?
          G#        D#
    Si vas buscando
      G#  C# G# D#
    a Jimmy Jazz, Jazz, Jazz...
    
            G#
    Puso veinte kilos de Goma 3
           F
    mando a tomar por culo
           C#
    Todo un cuartel.
    
  • ++++++++++++++++++++++++++++++
    + KORTATU: Jimmy Jazz (bajo) +
    ++++++++++++++++++++++++++++++
    
    Bajista: Iñigo Muguruza
    Tab: Pedro Navarro (flea0@hotmail.com)
    
    INTRODUCCION
    
    G|---------------------------------------------
    D|-5-6----6-5-4-3------------------------------
    A|------------------3-4-----5-6------4-----6---
    E|----------------------4--------4-----4-------
    
    
    
    LINEA PRINCIPAL DE LA CANCION
    
    G|---5-8-5----5-8-5----2-5-2----------------------------------------------
    D|-6--------6--------3----------3-6-3------------5-8-5----------6-7-8-----
    A|----------------------------4----------3-4-5-6----------3-4-5-------6---
    E|-------------------------------------4----------------4-----------------
    
    Aunque también puedes hacer (a mi me gusta más la primera aunque creo que
    la canción suena como pongo abajo):
    
    G|------------------------------------------------------------------------
    D|------------------------------3-6-3------------5-8-5----------6-7-8-----
    A|---3-6
  • +
    ¡Colabora con nosotros!
    Envíanos tu versión de esta canción

Letra de Jimmy Jazz
La pasma anda buscando
Lo tienes claro -dije-
De qué vas?
Si vas buscando
a Jimmy Jazz, Jazz, Jazz...
Puso veinte kilos de Goma 3
mando a tomar por culo
Todo un cuartel.
La pasma busca a
Jimmy Jazz, Jazz, Jazz...
Luego por la calle
oí comentar
Que está entre rejas.
"Que lo han ligao"
Después tomé unas copas
con Jimmy Jazz, Jazz, Jazz...
Con Jimmy Jazz, Jazz, Jazz... !




[Jimmy Jazz chords][Jimmy Jazz cifra]
© LaCuerda.net · aviso legal · privacidad · es · en · pt · contacto
DINAMICO