Acordes de Guitarra » K »King Clave » Los Hombres No deben llorar (Tab)

Los Hombres No deben llorar
King Clave

Letras, Acordes y Tabs para Guitarra, Bajo y Ukulele

  •               G
    Cuando te perdí no me conformé 
                 Am
    con la realidad,
                 D7
    un presentimiento en mi pensamiento
                  G
    me dio la verdad.
                                      Em
    La humilde casita que fue nuestro nido
                  Am
    muy triste quedó,
              D7
    sólo tu perume quedó en el recuerdo
               G         G7 
    de aquel gran amor.
                C                 D7 
    Tu procedimiento me hizo padecer
                  Bm                 Em
    dejando en mi pecho una herida cruel
    
  • Este requinto lo invente, esta muy facilya que se toca
    lo de la letra del coro, pero si no me entienden aqui
    se los puse bien claro
    
    DICE ASI...
    
    
        Di cen que los hom bres  no de ben llorar
    e|---10-10-10-----------------------------12-------------
    B|-------------14--12---12-------12-----12---------------
    G|--------------------------12----12------------------
    D|-------------------------------------------------
    A|-------------------------------------------------
    E|-------------------------------------------------
    
    
        por u  na mujer  queha pa ga do mal
    e|---12------------------------------10----------------
    B|------15-14--------------10----10-------------------
    G|------------16-14---11------11---------------------
    D|-------------------------------------------------
    A|-------------------------------------------------
    E|-------------------------------------------------
    
    La siguiente parte del cor es casi lo mismo ya que solo
    tiene 2 variaciones
         pe ro yo 
  • +
    ¡Colabora con nosotros!
    Envíanos tu versión de esta canción

Letra de Los Hombres No deben llorar
Cuando te perdí no me conformé
con la realidad,
un presentimiento en mi pensamiento
me dio la verdad.
La humilde casita que fue nuestro nido
muy triste quedó,
sólo tu perume quedó en el recuerdo
de aquel gran amor.
Tu procedimiento me hizo padecer
dejando en mi pecho una herida cruel
al verte rendida por otra ilusión
de celos y angustia mataste mi amor.
Dicen que los hombres no deben llorar
por una mujer que ha pagado mal
pero yo no pude contener mi llanto
cerrando mis ojos me puse a llorar.
Dicen que los hombres no deben llorar...

Video de Los Hombres No deben llorar
[]




[Los Hombres No deben llorar chords][Los Hombres No deben llorar cifra]
© LaCuerda.net · aviso legal · privacidad · es · en · pt · contacto
DINAMICO