Acordes de Guitarra » K »King Changó » Sin Tí (Tab)

Sin Tí
King Changó

Letras, Acordes y Tabs para Guitarra, Bajo y Ukulele

  • C / Am / F / G.....
    
    
    
    C                                             Am
    Ya no puedo ni comer,  Es que no puedo olvidar 
      C                                   Am      
    Vida mia ayudame,  Sin ti no puedo vivir 
     
             F            G           F                     G
    Y sigo asi, sin tu amor  Y sigo asi,es que mi vida sin Ti.
      
    
    No puedo vivir! 
    
    
     C
    Cuz baby you're so tough, so tough, so tough,
    
                                Am
    
  • VERSE
      C
    G----------------------------------------------
    D----------------------------------------------
    A-3-3-3-3-3-3-3-3---3---3-3-3-3-3-3-3-3---3----
    E-----------------3---------------------3------
      Am
     ----------------------------------------------
     ----------------------------------------------
     ------7-7-7-----------------------------------
     -5--5-------5-5-5-3-5---5--3-5--3-5-5-3--5----
      C
     ----------------------------------------------
     ----------------------------------------------
     -3-3-3-3-3-3-3-3---3---3-3-3-3-3-3-3-3---3----
     -----------------3---------------------3------
      Am
     ----------------------------------------------
     ----------------------------------------------
     ------7-7-7-----------------------------------
     -5--5-------5-5-5-3-5---5--3-5--3-5-5-3--5----
    
    CHORUS
      F                         G
     -----------------------------------------------------
     -----------------------------------------------------
     ---------3-3-3-3-3-3-3-3---------
  • +
    ¡Colabora con nosotros!
    Envíanos tu versión de esta canción
  • Tutorial
    HD
    VERSOS
    Como tocar SIN TI en guitarra - King Changó [Tutorial Rockstars]
    2:10
  • Tutorial
    HD
    Aprende a tocar la canción: Sin Ti (Cover)
    -Rawayana, willie r. mcklopedia
    Tutorial JuanchoGui
    6:58

Letra de Sin Tí
Ya no puedo ni comer, Es que no puedo olvidar
Vida mia ayudame, Sin ti no puedo vivir

Y sigo asi, sin tu amor Y sigo asi,es que mi vida sin Ti.

No puedo vivir!
Cuz baby you're so tough, so tough, so tough,
I have to get on my knees & pray

Oh baby it's not enough, enough, oh baby it's not enough ,
I have to get on my knees & pray
Todo quedo en el ayer, lagrimas en nuestro altar
tu eres mi alma gemela, Sin ti no puedo respirar
Y sigo asi, sin tu olor y sigo asi,Es que mi vida sin ti!

No puedo vivir no.

I have to get on my knees & pray
Cuz baby you're so tough, so tough, cuz baby you're so tough
I have to get on my knees & pray
Oh baby I and I pray
Me pray for another chance with you me pray
Oh God let this pain go away
Dime porque nuestro amor tuvo que terminar
Por que nuestro ego nos logró dominar
Acabando con todo lo que fué nuestro altar
Tú eres me alma gemela y no te voy olvidar
Y rezo pa' que en la otra vida
nos volvamos a encontrar
Oh baby I & I pray
Y sigo asi...
Come rock steady debe doo va day
Ya me tengo que ir
Y no me que quiero alejar
Ay, vida mia ayudame
Sin ti no quiero vivir más
Y sigo asi
Sin tu olor
Y sigo asi
No lo puedo evitar
Ayudame
No te puedo olvidar
Es que sin ti...
No puedo vivir más!

Video de Sin Tí
[]




[Sin Tí chords][Sin Tí cifra]
© LaCuerda.net · aviso legal · privacidad · es · en · pt · contacto