Acordes de Guitarra » K »King Changó » Confesión (Tab)

Confesión
King Changó

Letras, Acordes y Tabs para Guitarra, Bajo y Ukulele

  •             Em  Am   D   B   C   B
    E|---------|-7-|-5-|-5-|-7-|-8--|-7-|
    B|-----7---|-8-|-5-|-7-|-7-|-8--|-7-|
    G|---7-----|-9-|-5-|-7-|-8-|-9--|-8-|
    D|-7-----9-|-9-|-7-|-7-|-9-|-10-|-9-|
    A|---------|-7-|-7-|-5-|-9-|-10-|-9-|
    E|---------|-7-|-5-|-5-|-7-|-8--|-7-|
    
    Y el intro termina con
    C B C B C B A G F#m
    
    Em                      Am
    Soy traicionero y soy un viajero
    D                      B7
    en este mundo de la emocion,
    Em                      Am
    me inspiro de pronto y olvido lo bueno,
    D                      B7
    pero en este caso, mi volcán se apago!
    
    
  • MIm -7   LA -5     RE -5      SI -7                                
        -8      -5        -7         -7             
        -9      -6        -7         -8             
        -9      -7        -7         -9              
        -7      -7        -5         -9                       
        -7      -5        -5         -7             
    
    
    
    DO-DO-SI-DO-SI-LA-SOL-FA#
    
    
    
    
    MIm
    Yo soy traicionero y soy un viajero
    LA
    en este mundo de la emocion,
    RE
    me inspiro de pronto y olvido lo bueno,
    
  • Intro:
    1:
    G----------------------------------------------------
    D--------------------2-----2---4---7-5-4---1---4-2-1-
    A---------2-----2-0-3--0-3---5---5-------2---2-------
    E-12/-0-3---0-3--------------------------------------
    2:
    G------------------------------------------------------
    D-----------------2-----2---4---7-5-4------------------
    A-----2-----2-0-3---0-3---5---5-------2-3-2--3-2-0-----
    E-0-3---0-3----------------------------------------3-2-
    
    I:
    G----------------------------------------------------
    D---------------------2---------4--------------------  x 2
    A---------2---------3---3-5-555---5-4-2-3-2-3-0------
    E-0-000-3---3-5-555-----------------------------3-2--
    
    II:
    G------------------------------------------------------
    D---------------------2---------4----------1-3--------- x 3
    A---------2---------3---3-5-555---5-4-2--2-------------
    E-0-000-3---3-5-555------------------------------------
    
     I x 3
    Vuelve y se repite la parte II otras estrofas mas
    Solo 
  • intros:
       mi            la          re            si
    4:---------------5-8---5-8-----------------7---7-----7--
    3:-7-10---7-10-------7-----7-5---7-5-----5---6---9-6----
    2:------9------9---------------4-----7-4----------------
    1:------------------------------------------------------
    
    4:-mi-la-re-7-8-7-8-7-5-3-2--
    3:---------------------------
    2:---------------------------
    1:---------------------------
    
    
    trompetas:
    4:-----------------5-5-5-5-8---8-------------8-7-8-7-5-3-2--
    3:-7-7-7-7-10---10-----------7---5-5-5-5-7-5----------------
    2:------------9---------------------------------------------
    1:----------------------------------------------------------
    
    
    versos:
    4:-----------------5-5-5-5-8---8---------8-7-8-7-5-7--
    3:-7-7-7-7-10---10-----------7---5-5-5-5--------------
    2:------------9---------------------------------------
    1:----------------------------------------------------
    
    
    puente:
    oigo el telefono sonar
      mi         do
    4:-----------8-8-8-8-8-8--
    3:-
  • +
    ¡Colabora con nosotros!
    Envíanos tu versión de esta canción

Letra de Confesión
-8 -5 -7 -7
-9 -6 -7 -8
-9 -7 -7 -9
-7 -7 -5 -9
-7 -5 -5 -7
Yo soy traicionero y soy un viajero
en este mundo de la emocion,
me inspiro de pronto y olvido lo bueno,
pero en este caso, mi volcán se apago!
Maldita decision
que se me enreda en la niebla
por no seguir lo que grita el corazon
eres tú, solo tu amor!
Confesion, confesion,
prendo una vela y le pido a los santos,
sigo la vía de un futuro que anhelo,
pero sin ti mi alma se quema en lo incierto
y asi hasta el final con 2 tiempos en cada nota
Porque cada vez
que tú me miras morena
mi corazon empieza a palpitar
como ayer, como hoy amor!
Yo sé bien que todo lo que tengo te lo debo a ti!
Oigo el teléfono sonar
pienso que vas a llamar
nadie responde oh no!
se que soy el culpable...
Yo le rezo y le pido a los santos...
sí, sí, sí, vuelve a mi...
Yemayá, oh Yemayá, donde ella este protéjela!
Yo sè bien fue mala decision, pero donde estés, espero que estés
bien!
Eres tú la mejor mujer, solo tú
mi esposa y companera,
confesion, confesion, confesion...

Video de Confesión
[]




[Confesión chords][Confesión cifra]
© LaCuerda.net · aviso legal · privacidad · es · en · pt · contacto