Acordes de Guitarra » K »Kevin Johansen » Campo Argentino (Tab)

Campo Argentino
Kevin Johansen

Letras, Acordes y Tabs para Guitarra, Bajo y Ukulele

  • A   D
    
    A        D           A
    Qué querés, qué querés?
    What you want, what you want?
    Que est que çais que tu veux?
    
    Chacarera: A   D
    
    G      E         G
    Yo no sé, yo no sé
    I don’t know, I don’t know
    Je ne sais pas, Je ne sais pas…
    
    Chacarera: A   D
    
              D            A
    I don’t know, don’t know I
    Je ne sais pas, pas ne sais Je!
    Yo no sé, no sé yo
    
  • e--------------------------------------------------------| 
    B---2-----2--2-----2s-3------3--3-----3--2-----------| 
    G------2---------2----------2---------1----------------| 
    D--------------------------------------------------------| 
    A--------------------------------------------------------| 
    E--------------------------------------------------------| 
    Repetir 
    
    A D E (chacareramente) 
    
    Estrofa 
    
    e---------------------------------------------------------------------| 
    B----14-----------14------------14------------14-------------------| 
    G---------14-----------14------------14------------14--------------| 
    D--------------14-----------14------------14------------14---------| 
    A----------------------------------------------------------------------| 
    E----------------------------------------------------------------------| 
    
    e---------------------------------------------------------------------- 
    
  • +
    ¡Colabora con nosotros!
    Envíanos tu versión de esta canción

Letra de Campo Argentino
Qué querés, qué querés?
What you want, what you want?
Que est que çais que tu veux?
Yo no sé, yo no sé
I don’t know, I don’t know
Je ne sais pas, Je ne sais pas…
I don’t know, don’t know I
Je ne sais pas, pas ne sais Je!
Yo no sé, no sé yo




[Campo Argentino chords][Campo Argentino cifra]
© LaCuerda.net · aviso legal · privacidad · es · en · pt · contacto
DINAMICO