Acordes de Guitarra » K »Ketchup » Aserejé (Tab)

Aserejé
Ketchup

Letras, Acordes y Tabs para Guitarra, Bajo y Ukulele

  •     Dm
    Mira lo que se avecina a la vuelta de la esquina viene Diego rumbeando
       Dm
    Con la luna en las pupilas y en su traje aguamarina van restos de contrabando
                        Gm                    C              Am                        Dm 
    Y donde más no cabe un alma allí se mete a darse caña poseído por el ritmo raga-tanga
                   Gm                 C                       Am                       Dm 
    Y el diyei que lo conoce toca el himno de las doce, para Diego la canción más deseada
               A#           A#           A#m
    Y la baila, y la goza, y la canta
    
    CORO
    
               Dm
    Aserehé, ha, dehé
    Dehebe, tu dehebe desebi yunogua
                                      C                                                   
    Mahabi am de bugui, am de buididibi
                 
    Aserehé, ha, dehé
    
  • Dm:  000231
     B:  113331
     C:  032010
    Am:  002210
    Am#: 688666 
    Gm:  355333
    G#:  466544
     A:  577655 / 002220 
    
    
    
    [* intro *]
         D
    E-||--------------------------8---8/10-----------------------------------------------
    B-||--------------------8/10--------------10\8------8--------------------------------
    G-||--------------------------------------------10-----10..\..-----------------------
    D-||---------------------------------------------------------------------------------
    A-||---------------------------------------------------------------------------------
    E-||---------------------------------------------------------------------------------
    
    
  • ESTA EN LA MISMA NOTA DE LA CANCION
    
    Comienza con un bajo que es...
    E-------6---------------
    B-------7---------------
    G-----------------------
    D------------------------
    A----6-------------(6)-----
    E----------6--9--------- una y otra vez
    
    luego entra otra guitarra:
    E-------9--11-------------------------
    B---s11-----------7s9--7--11----------
    G-----------------------------11------
    D---------------------------------13--
    A-------------------------------------
    E-------------------------------------
    
    
    Luego es la nota principal, Ebm (Mi bemol menor)
    
    [Ebm] Mira lo que se avecina a la vuelta de la esquina
    viene Diego rumbeando...
    
    (mismas notas)
    Con la luna en las pupilas y en su traje aguamarina
    van restos de contrabando
    
    Y donde [B] más no cabe un alma alli se [C#] mete a darse caña
    pose[Bbm]ído por el ritmo raga[Ebm]tanga...
    
    (mismas notas)
    Y el DJ que lo conoce toca el himno de las doce
    para Diego la canción más deseada
    
    
    Y la [Ebm] baila, y la goz
  •       D#m
    e-----6-------------------6---------------------
    B-----7-------------------7---------------------
    G-----8-------------------8---------------------
    D-----------------------------------------------
    A-(6)---(6)-----------(6)---(6)-----------------
    E-----------(6)-(9)-------------(6)-(9)--------- [4x]
    
    
    [segunda guitarra con wah]
    
     -----------11-|-------------------------
     -9h11-9h11----|--9-9~--7--11p9----------
     --------------|----------------11~~-----
     --------------|-------------------------
     --------------|-------------------------
     --------------|-------------------------
    
    [verso]
    
    
  • +
    ¡Colabora con nosotros!
    Envíanos tu versión de esta canción

Letra de Aserejé
[* intro *]
Mira lo que se avecina a la vuelta de la esquina viene Diego rumbeando
Con la luna en las pupilas y en su traje aguamarina van restos de contrabando
Y donde más no cabe un alma allí se mete a darse caña poseído por el ritmo raga-tanga
Y el diyei que lo conoce toca el himno de las doce, para Diego la canción más deseada
Y la baila, y la goza, y la canta
Aserehé, ha, dehé
Dehebe, tu dehebe desebi yunogua
Mahabi am de bugui, am de buididibi
Aserehé, ha, dehé
Dehebe, tu dehebe desebi yunogua
Mahabi am de bugui, am de buididibi
Aserehé, ha, dehé
Dehebe, tu dehebe desebi yunogua
Mahabi am de bugui, am de buididibi
[* repite intro *]
No es cosa de brujería que lo encuentre to' los días por donde voy caminando
Diego tiene chulería y ese punto de alegría rastafari afro-gitano
Y donde más no cabe un alma allí se mete a darse caña poseído por el ritmo raga-tanga
Y el diyei que lo conoce toca el himno de las doce, para Diego la canción más deseada
Y la baila, y la goza, y la canta
Aserehé, ha, dehé
Dehebe, tu dehebe desebi yunogua
Mahabi am de bugui, am de buididibi
Aserehé, ha, dehé
Dehebe, tu dehebe desebi yunogua
Mahabi am de bugui, am de buididibi
Aserehé, ha, dehé
Dehebe, tu dehebe desebi yunogua
Mahabi am de bugui, am de buididibi
Ah, na, na, na, na, na, na, na, na, na, na, na.
Ah, na, na, na, na, na, na, na, nao.
Ah, na, na, na, na, na, na, na, na, na, na, na.
Ah, na, na, nai a i a i e o.
Ah, na, na, na, na, na, na, na, na, na, na, na.
Ah, na, na, na, na, na, na, na, nao.
Ah, na, na, na, na, na, na, na, na, na, na, na.
Ah, na, na, nai a i a i e o.
Aserehé, ha, dehé
Dehebe, tu dehebe desebi yunogua
Mahabi am de bugui, am de buididibi
Aserehé, ha, dehé
Dehebe, tu dehebe desebi yunogua
Mahabi am de bugui, am de buididibi
Aserehé, ha, dehé
Dehebe, tu dehebe desebi yunogua
Mahabi am de bugui, am de buididibi
[* repetir dos veces y fundir *]

Video de Aserejé
[]




[Aserejé chords][Aserejé cifra]
© LaCuerda.net · aviso legal · privacidad · es · en · pt · contacto