Acordes de Guitarra » K »Kerigma » Esquizofrenia (Tab)

Esquizofrenia
Kerigma

Letras, Acordes y Tabs para Guitarra, Bajo y Ukulele

  •        B
    1-------------------------------------5-
    2------5-4----------------5-4-----------
    3----4-----4---2-4------4-----4---2-4---
    4--4---------4---------4--------4-------
    5---------------------------------------
    6---------------------------------------
    
           A             E
    1---------------------------------------
    2--2-0----------0-----------------------
    3------2----------2-1-------------------
    4--------2------------2-----------------
    5---------------------------------------
    6---------------------------------------
    
    ACORDES:(Power Chords)
    
     B                  
       Casi cada noche vivia el miedo
    
  • +
    ¡Colabora con nosotros!
    Envíanos tu versión de esta canción

Letra de Esquizofrenia
ACORDES:(Power Chords)
Casi cada noche vivia el miedo
Casi cada dia fingiamos amor
Como si nada...(Y asi toda la cancion)

Venme a salvar
No puedo más
Por fa mandenme sus comentarios por que es mi primer tabulacion
a la direccion que viene alla abajo, si no les gusto perdonenme
que solo tengo 16 años

Video de Esquizofrenia
[]




[Esquizofrenia chords][Esquizofrenia cifra]
© LaCuerda.net · aviso legal · privacidad · es · en · pt · contacto