Acordes de Guitarra » K »Kalimba » Se te olvidó (Tab)

Se te olvidó
Kalimba

Letras, Acordes y Tabs para Guitarra, Bajo y Ukulele

  • F  C  Bb  F  C
    
    E----------------------------------------------------------
    A--------------------------------------------------- 10-^8-
    D------------------------------------------------8-p-10--7-
    G-------------------10--7-s-9--s-7--5p-7p-5--^7--7---------
    B-----8s-^10--10p-8-----8---10---8---------^6--------------
    e----------------------------------------------------------
    
     F
    El tiempo nos desconoció,
    C
    nos apago el corazón,
     Bb                           F              C
    donde escondio todo ese amor, no entiendo.
    
     F
    se ensordecio mi respiración,
    C
    se me escapo dentro de tu voz,
    
  •     F           C         A#         F        C
    1/----------------------------------------------/
    2/--8p10-8p10-8----8p10-8-----6-6---------------/
    3/--------------10--------5p7-----7--8-10-8-2-0-/
    
    F
    el tiempo nos desconocio
    C
    nos apago el corazon
    A#
    donde escondio todo ese amor
    F             C
    no entiendo ouunooo
    
    F
    ensordecio mi respiracion
    C
    se me escapo dentro de tu voz
    A#
    ya no avanza el reloj
    
  • Intro:
    
    e-----------------------------------------------------
    B-8/10~-8h10-8----8/10-8~--5---5-6-----5---5----------
    G--------------10----------5h7-5---7~--5h7-5-5--------
    D--------------------------------------------5h7~--
    
    Intermedio:
    
    e---------------------------------------------------------------
    B-8/10~-8h10-8----8/108~--5---5-6-----5---5---5----------------
    G--------------10----------5h7-5---7~--5h7-5h7-5----------------
    D------------------------------------------------5/7~-5h7p5--
    
    Solo Final:
    
    e----------------8-------------------------------------------------------
    B-----8ˆ(10)r8~----8ˆ(10)r8-6h8~-5------------5---5----------------------
    G-5/7----------------------------5h7p5--5/7~--5h7-5---------5—-----------
    D---------------------------------------------------5-5/7~--5h7p5~-3-5-3-
    
    e------8-10--14ˆ(16)r14------------8------------------------
    B-8/10-------------------6-8ˆ(10)---8ˆ(10)r8-6~-------6----
    G---------------------------------------------------5------
    D------
  • +
    ¡Colabora con nosotros!
    Envíanos tu versión de esta canción

Letra de Se te olvidó
El tiempo nos desconoció,
nos apago el corazón,
donde escondio todo ese amor, no entiendo.
se ensordecio mi respiración,
se me escapo dentro de tu voz,
ya no avanzaré el reloj, no puedo.
Precoro:
Después de todas las estrellas con que te abrige,
esa noche blanca y serena que se fue entre tu piel , tal vez, ¿a donde fue?
se te olvidó que yo sin tu no puedo respirar,
se te olvidó que el cielo cae a cachos si no estas,
se te olvidó que siento en mi interior un eco que no puede hablar,
se te olvidó que si me dejas ya no puede andar,
se te olvidó que yo sin ti ya no quiero más,
se te olvidó que ahora sin tú amor mi vida se empezó a apagar.
Se te olvidó decirme como te podre olvidar.
Aunque me trage el dolor y trate de esconder mi amor,
aunque me haga el fuerte hoy , te extraño.
Me quedo ciego , se escapo el color,
ya no me toca ahora más el sol, cada latido dice aún te amo.
Después de todas las estrellas con que te abrige,
esa noche blanca y serena que se fue entre tu piel , tal vez, ¿a donde fue?
se te olvidó que yo sin tu no puedo respirar,
se te olvidó que el cielo cae a cachos si no estas,
se te olvidó que siento en mi interior un eco que no puede hablar,
se te olvidó que si me dejas ya no puede andar,
se te olvidó que yo sin ti ya no quiero más,
se te olvidó que ahora sin tú amor mi vida se empezó a apagar.
Se te olvidó decirme como te podre olvidar.
Wilson.




[Se te olvidó chords][Se te olvidó cifra]
© LaCuerda.net · aviso legal · privacidad · es · en · pt · contacto