Acordes de Guitarra » J »Julio Melgar » Te quiero alabar (Tab)

Te quiero alabar
Julio Melgar

Letras, Acordes y Tabs para Guitarra, Bajo y Ukulele

  • INTRO:  ////Em-C-D//// ESTO LO HACE EL BAJO ACOMPAÑADO DEL SINTE
    
    Em           C
       TODA LA TIERRA
        G                 D
    PROCLAMA TU NOMBRE SEÑOR
    Em            C
      TODO EL UNIVERSO
    G               D
      MUESTRA TU PODER
    C       G     D
    DIME COMO PODRE
             G         D/F#      Em
    CANTAR A ALGUIEN QUE NO SEAS TU
    C       G     D
    DIME COMO PODRE
                G   D/F#   Em    D
    SI SOLO EN TI SEGURO ESTOY
    
              G     D
    
  •      Em   D        C
    e------------------------------------------------------------
    B----------10^-----------10------------10--------------------
    G-------------9-11-12-11---12-11-9--9-----12-11-9--------12-9
    D-9-9--7-7------------------------12--------------12-9-------
    A-7-7--5-5---------------------------------------------12----
    E------------------------------------------------------------
    
    e--------------------15-12-12^-------------------------------
    B------17-15-13-15-13----------10----------10----------------
    G-14-16---------------------------11-12-11---11-9------------
    D------------------------------------------------------------
    A------------------------------------------------------------
    E------------------------------------------------------------
    
    ESTA ES LA SEGUNDA PARTE AQUÍ YA CAMBIA LAS NOTAS////B C D////
    e---------------------------------------------------------------
    B-------------------------------------------------12--10-8-12-8-
    G-11-12-9--11---------------------------9---11-12---------------
    D-------------12--12-11-12--12-11-12-11-------------------------
    
  • +
    ¡Colabora con nosotros!
    Envíanos tu versión de esta canción

Letra de Te quiero alabar
TODA LA TIERRA
PROCLAMA TU NOMBRE SEÑOR
TODO EL UNIVERSO
MUESTRA TU PODER
DIME COMO PODRE
CANTAR A ALGUIEN QUE NO SEAS TU
DIME COMO PODRE
SI SOLO EN TI SEGURO ESTOY
TE QUIERO ALABAR
TE QUIERO ADORAR
Y CANTAR SALMOS A TU NOMBRE
TE QUIERO ALABAR
TE QUIERO ADORAR
Y CANTAR SALMOS A TU NOMBRE
//OH O O U O O O
O O O O O O //
Y CAEN AL CORO
jjopj@hotmail.com y jjopj5_10@yahoo.es Jhonie Josué Osorio Perez .
EL SOLO DE LA GUITARRA MUY PRONTO SE LOS ESTARE ESCRIBIENDO




[Te quiero alabar chords][Te quiero alabar cifra]
© LaCuerda.net · aviso legal · privacidad · es · en · pt · contacto
DINAMICO