Acordes de Guitarra » J »José José » El mundo (Tab)

El mundo
José José

  • Letra y Acordes
    e|--------------------------------------
    B|--------------------------------------
    G|-2-3-2-3-2-3-2-3-2-3-2-3-2-3-2--------
    D|--------------------------------------
    A|--------------------------------------
    E|--------------------------------------
    
    
    
    e|-0-----------0---------0----------0-------
    B|-1--------1----1----1-----0-------1-------
    G|-0-----0---------0-----------0----2-------
    D|-2--------------------------------2-------
    A|-3--------------------------------0-------
    E|-0--------------------------------0-------
    NO EN ESTA NOCHE YA NO PIENSO AMOR EN TI
    
    e|--------0----------0-----------1------
    B|-----1----1-----1-----1--------1------
    G|---2--------2-----------1------2------
    
  • +
    ¡Colabora con nosotros!
    Envíanos tu versión de esta canción

Letra de El mundo
NO EN ESTA NOCHE YA NO PIENSO AMOR EN TI
ABRI LOS OJOS SOLAMENTE PARA VER
SI EN TORNO A MI GIRABA EL MUNDO COMO SIEMPRE
GIRA EL MUNDO GIRA EN SU ESPACIO INFINITO
CON AMORES QUE COMIENZAN CON AMORES QUE TERMINAN
CON LAS PENAS Y ALEGRIAS DE OTRA GENTE COMO YO
HO MUNDO POR ESO AHORA YO TE MIRO
Y EN TU SILENCIO YO ME PIERDO
Y NO SOY NADA AL VERTE A TI
EL MUNDO,QUE NO HA PARADO NI UN MOMENTO
SU NOCHE MUERE Y VIENE EL DIA
Y ESE DIA ME VERAS
HOO MUNDO
EL MUNDO QUE NO HA PARADO NI UN MOMENTO
SU NOCHE MUERE Y VIENE EL DIA
Y ESE DIA, ME VERAS
BUENO SIMPLEMENTE LES ENCARGO SU CALIFICACION AQUI
EN EL ENLACE QUE ESTA ARRIBA DONDE DICE (CALIDAD),
A UN LADO DE TEXTO
DEDICADA PARA TI LETY, ESPERO QUE EL CAMINO QUE ELEGISTE
SEA EL CORRECTO Y EL QUE TE CONDUZCA A LA FELICIDAD
TU AMIGO QUE SIEMPRE TE APOYA Y TE QUIERE.



© LaCuerda.net · aviso legal · privacidad · contacto