Acordes de Guitarra » J »José José » Cuando Vayas Conmigo (Tab)

Cuando Vayas Conmigo
José José

Letras, Acordes y Tabs para Guitarra, Bajo y Ukulele

  •                 Em              Am     B7          
    Cuando vayas conmigo no mires a nadie
                                           Em
    Que tú sabes que yo no consiento un desaire.
                       D            G 
    Que me sienta muy mal, que tú vuelvas la cara
     C                                    B7  
    Cuando tienes al lado a quien tanto te ama.
    Em                              Am     B7
    Cuando vayas conmigo no mires a nadie,
                                           Em
    Que alborotas los celos que tengo del aire.
                     D        G           
    Que me sienta fatal cuando alguien que pasa,
     C                               B7
    Por un sólo momento distrae tu mirada.
                     E
    Cuando vayas conmigo
                     F#m 
    Ve apoyada en mi hombro,
    
  • ||-----------6---|-----------6---|-----------6---|-----------6---||
    ||---------3-----|---------3-----|---------3-----|---------3-----||
    ||-----0-3-------|-----0-3-------|-----0-3-------|-----0-3-------||
    ||---5-----------|---5-----------|---5-----------|---5-----------||
    ||-5-------------|-5-------------|-5-------------|-5-------------||
    ||---------------|---------------|---------------|---------------||
    
    ||-----------6---|-----------5---|-----------5---|-----------5---||
    ||---------3-----|---------------|---------------|---------------||
    ||-----0-3-------|-----3-5-2-----|-----3-5-2-----|-----3-5-2-----||
    ||---5-----------|---4-----------|---4-----------|---4-----------||
    ||-5-------------|-5-------------|-5-------------|-5-------------||
    ||---------------|---------------|---------------|---------------||
    
    Gm                                   Cm
      Cuando vayas conmigo no mires a nadie
    D7                                       Gm
      Que tú sabes que yo no consiento un desaire.
    Gm                   F                      Bb
      Que me sienta muy mal, que tú vuelvas la cara
    
  • +
    ¡Colabora con nosotros!
    Envíanos tu versión de esta canción

Letra de Cuando Vayas Conmigo
Cuando vayas conmigo no mires a nadie
Que tú sabes que yo no consiento un desaire.
Que me sienta muy mal, que tú vuelvas la cara
Cuando tienes al lado a quien tanto te ama.
Cuando vayas conmigo no mires a nadie,
Que alborotas los celos que tengo del aire.
Que me sienta fatal cuando alguien que pasa,
Por un sólo momento distrae tu mirada.
Cuando vayas conmigo
Ve apoyada en mi hombro,
Ve escuchando el latido
Que lleva mi sangre tan sólo.
Cuando vayas conmigo
nada debe importarte
que tu mundo se encierre
en tu amor y mi amor,
cuando vayas conmigo.
Cuando vayas conmigo no mires a nadie
Que tú sabes que yo no consiento un desaire.
Que me sienta muy mal, que tú vuelvas la cara
Cuando tienes al lado a quien tanto te ama.
Cuando vayas conmigo…




[Cuando Vayas Conmigo chords][Cuando Vayas Conmigo cifra]
© LaCuerda.net · aviso legal · privacidad · es · en · pt · contacto