Acordes de Guitarra » J »José Domingo » Motivos (Tab)

Motivos
José Domingo

Letras, Acordes y Tabs para Guitarra, Bajo y Ukulele

  •                   A
    Yo solo quise querer
                      E7
    Yo solo quise quererte
       
    Yo nada te pude dar
                      A
    Yo nada pude ofrecerte
    
                     A
    Solo queria tu vida
                     E7
    Para vivirla contigo
    
    Quisiera darte mi vida
                      A
    Que la vivieras conmigo
    
           A7         D  Dm
    Quise motivar tu vida
    
  •    A6               A               A6                  E7
    e--2-----2-----2----0-----0-----0----2-----2-----2----0-----0-----0---
    B----2-----2-----2----2-----2-----2----2-----2-----2----3-----3-----3-
    G------2-----2----------2-----2----------2-----2----------1-----1-----
    D---------------------------------------------------------------------
    A--0----------------0----------------0--------------------------------
    E-----------------------------------------------------0---------------
    
       E9               E7               E9              A
    e--2-----2-----2----0-----0-----0----2-----2-----2----0-----0-----0---
    B----3-----3-----3----3-----3-----3----3-----3-----3----2-----2-----2-
    G------1-----1----------1-----1----------1-----1----------2-----2-----
    D---------------------------------------------------------------------
    A-----------------------------------------------------0---------------
    E--0----------------0----------------0--------------------------------
    
    ESTROFA I (Riff 1)
    Yo solo quise querer,
    yo solo quise, quererte,
    yo nada te pude dar,
    
  •            A                         E                      A
    E -------------------------------------------------------------
    A -------------------------------------------------------------
    D ---------4--2------------2--------------4--2-------------2---
    G ----2---------2-2-2-2-1------------4----------2-2-2-2-1------
    B --2---2---------------------3-3--3----3---------------------2-2-
    E -------------------------------------------------------------
    
    A
    Yo solo quise querer
                      E
    Yo solo quise quererte
    
    Yo nada te pude dar
                      A
    Yo nada pude ofrecerte
    
    A
    Solo quería tu vida
                     E
    
  • +
    ¡Colabora con nosotros!
    Envíanos tu versión de esta canción

Letra de Motivos
Yo solo quise querer
Yo solo quise quererte

Yo nada te pude dar
Yo nada pude ofrecerte
Para vivirla contigo
Quisiera darte mi vida
Que la vivieras conmigo
Quise motivar tu vida
Quise motivar tu vientre
Quise motivarte toda
Quise motivarte Siempre
Quise con nuestros motivos
Motivar un tiempo nuestro
Y que motivo a motivo
Naciese un motivo nuestro
Quiero que tu me amanezcas
Quiero que tu me trasnoches

Quiero que tu me hagas tuyo
Quiero que tu me derroches
Para vivirla contigo

Quisiera darte mi vida
Que la vivieras conmigo
Quise motivar tu vida
Quise motivar tu vientre
Quise motivarte toda
Quise motivarte Siempre
Quise con nuestros motivos
Motivar un tiempo nuestro
Y que motivo a motivo
Naciese un motivo buevo.

Video de Motivos
[]




[Motivos chords][Motivos cifra]
© LaCuerda.net · aviso legal · privacidad · es · en · pt · contacto
DINAMICO