Tablatura para Guitarra de José Alfredo Jiménez: Paloma querida
Conexión · Inscripción
Letras y Acordes
Pantalla Completa
Imprimir
Versión Texto
Añadir Favorito
Otras Versiones

Mostrar Diagramas
Desfile Automático
Manipular Acordes
Formato del Texto


Paloma querida(TAB)

José Alfredo Jiménez

calidad:
jaji0182
AUTOR: José Alfredo Jiménez
ALBUM: Paloma Querida Y Otros Exitos
Enviado por EDUARDO
INTRO

E-7--7--7---5--5--7--5--5--7--4--
B-9--9--9---7--7--9--7--7--9--5--
G--------------------------------

E-7--7--7---5--5--7--5--5--7-----
B-9--9--9---7--7--9--7--7--9-----
G--------------------------------

E----4-----4---4---2--4--5--4--4--2--0
B-5-----5------5---3--5--7--5--5--3--2
G-------------------------------------

E-0--2--0-----0--4--0-----0----------
B-2--3--2--3--2--5--2--3--2----------
G----------4-----------4--2----------
D-------------------------2----------
A-------------------------0----------
E------------------------------------


A E7 POR EL DIA EN QUE LLEGASTE A MI VIDA
D A PALOMA QUERIDA ME PUSE A BRINDAR
A E7 Y AL SENTIRME UN POQUITO TOMADO
E7 E7 PENSANDO EN TUS LABIOS
E7 A ME DIO POR CANTAR
A E7 ME SENTI SUPERIOR A CUALQUIERA
D A QUE UN PUÑO DE ESTRELLAS TE QUISE BAJAR
A E7 Y AL MIRAR QUE NINGUNA ALCANZABA
E7 A ME DIO TANTA RABIA QUE QUISE LLORAR CORO
B7 E YO NO SE LO QUE VALGA MI VIDA
B7 E PERO YO TE LA QUIERO ENTREGAR
E7 A YO NO SE SI TU AMOR LA RECIBA
E7 A PERO YO TE LA VENGO A DEJAR *** INTRO ***
A E7 ME ENCONTRASTE EN UN NEGRO CAMINO
D A COMO UN PEREGRINO SIN RUMBO NI FE
A E7 Y A LA LUZ DE TUS OJOS DIVINOS
E7 A CAMBIARON MIS PENAS POR DICHA Y PLACER
A E7 DESDE ENTONCES YO SIENTO QUERERTE
E7 D A CON TODAS LAS FUERZAS QUE MI ALMA ME DA
A E7 DESDE ENTONCES PALOMA QUERIDA
E7 A MI PECHO HE CAMBIADO POR UN PALOMAR CORO
Este fichero es trabajo propio de su transcriptor y representa su interpretación personal de la canción. El material contenido en esta página es
para exclusivo uso privado, por lo que se prohibe su reproducción o retransmisión, así como su uso para fines comerciales.

© LaCuerda.net · Aviso Legal · Privacidad