Acordes de Guitarra » J »Jorge Veloza » La rumba de las flores (Tab)

La rumba de las flores
Jorge Veloza

Letras, Acordes y Tabs para Guitarra, Bajo y Ukulele

  •   Inicio
    
    1/--------10---------------10---------------10---------------------
    2/------10---12--10------10---12--10------10---12--10--------------
    3/----11---------------11---------------11-----------11-12-11-9----
    4/--12---------------12---------------12------------------------12-
    5/-----------------------------------------------------------------
    6/-----------------------------------------------------------------
                                                            Esta parte
                                                         se repite 2 veces
    
    
    
    1/---------------------------------------------------
    2/--------------------------2-1-2-1-2-2-1-2-2-1-2-2-- esta parte
    3/--2-1-2-1-2-2-1-2-2-1-2-2--------------------------  se repite
    4/---------------------------------------------------  dos veces
    5/---------------------------------------------------
    6/---------------------------------------------------
    
    1/---10--9--7------10--------------------
    2/-------------10------10-10--8-7--------
  • +
    ¡Colabora con nosotros!
    Envíanos tu versión de esta canción



Video de La rumba de las flores
[]




[La rumba de las flores chords][La rumba de las flores cifra]
© LaCuerda.net · aviso legal · privacidad · es · en · pt · contacto