Acordes de Guitarra » J »Jorge Drexler » Asilo (Tab)

Asilo
Jorge Drexler

Letras, Acordes y Tabs para Guitarra, Bajo y Ukulele

  • Intro: C , C/G x4
    (este juego entre C y C con el bajo en G lo hace durante toda la canción)
    
                        C
    Dame una noche de asilo en tu regazo.
    Dm7                G
    Esta noche, por ejemplo.
                       C
    Dejemos al mundo fuera.
                    Dm7                 G
    Abre tus brazos, ciérralos conmigo dentro
                        C
    solo unas horas y luego, cuando amanezca,
    Dm7                    G
        yo pondré una cafetera.
                          C - C/B - Am (desciende en laa quinta cuerda: 3-2-0)
    Y habré llevado esta nube
    Am               Dm               G
    hacia otro cielo    de nubes pasajeras.
            Em !   Em ! Em !    Em !    Am
    
  • Cmaj7/G: 332000
    D7/A: 5545XX
    G7(13): 353453
    C/G: 3X2010
    Todos los otros acordes son con cejilla menos la bajada  C - C/B - Am
    
    Intro
       Cmaj7/G  Am7      Dm7           G7(13)     Cmaj7/G (let ring)
    ------------------5-|-5-------------3--------|-0--------------------|
    ------------------5-|-6-------------3h5------|-0--------------------|
    ------------------5-|-5----5-5h7p5--4--4-----|-0--------------------|
    --2/3-2-----------5-|-7----7-5----7-3---3----|-2--------------------|
    --------3----- 7----|-5----5--------5--------|-3--------------------|
    ----------3/5-------|---------------3--------|-3--------------------|
    
       Cmaj7/G  Am7      Dm7     G (subida) C (ya pertenece al verso)
    ------------------5-|-5------3---------|
    ------------------5-|-6------3---------|
    ------------------5-|-5----5-4---------|
    --2/3-2-----------5-|-7----7-5---------|
    
  • +
    ¡Colabora con nosotros!
    Envíanos tu versión de esta canción
  • Tutorial
    HD
    Como Tocar Asilo - Jorge Drexler (Tablatura/Partitura/Cover)
    3:05

Letra de Asilo
(este juego entre C y C con el bajo en G lo hace durante toda la canción)
Dame una noche de asilo en tu regazo.
Esta noche, por ejemplo.
Dejemos al mundo fuera.
Abre tus brazos, ciérralos conmigo dentro
yo pondré una cafetera.
Y habré llevado esta nube
hacia otro cielo de nubes pasajeras.
Si el sueño pierde pie, resbala,
queda colgando de un hilo,
prefiero una noche entera en vela, a tener el alma en vilo.
Dame una noche de asilo.
Dame una noche de asilo,
dame un remanso.
Yo te daré lo que tengo:
este amor que no me explico.
Pasan los años, ¡y sigue a espaldas del tiempo!
Quiero que me hables del tiempo
Que te desnudes como si fuera algo corriente.
Como si verte desnuda no me aturdiera
tan sistemáticamente.
Tu piel me sea desconocida,
me deja siempre intranquilo.
Prefiero lamer después mis heridas
A que tu amor pierda filo.
Dame una noche de asilo,
dame una noche de asilo.
Dame una noche de asilo,
dame una noche de asilo...




[Asilo chords][Asilo cifra]
© LaCuerda.net · aviso legal · privacidad · es · en · pt · contacto