Acordes de Guitarra » J »Joaquín Sabina » Dieguitos y mafaldas (Tab)

Dieguitos y mafaldas
Joaquín Sabina

  • Letra y Acordes
         D    Gm   Dm   E    A    Bb   D7   D#dim     
    E||--2----3----1----0----0----1----2----2----|--||
    B||--3----3----3----0----2----3----1----1----|--||
    G||--2----3----2----1----2----3----2----2----|--||
    D||--0----5----0----2----2----3----0----1----|--||
    A||-------5---------2----0----1--------------|--||
    E||-------3---------0------------------------|--||
    
    
    
    Intro: D-Gm-Dm-E-A
    
    
            Dm  A           Dm                      Bb        A
    Veinte años cosidos a retazos de urgencias, disimulos y rutinas,
            Gm                     A                                  Dm
    veinte años cumplidos, en mis brazos, con la carne del alma de gallina.
            Dm  A             Dm   D7                     Gm
    Veinte años de príncipes azules que se marchaban antes de llegar,
                                    Dm           E                    A
    
  • Letra y Acordes
    INTRO:    RE7   SOLm   SOLm7  REm  MI  MI7  LA  LA7
    
             REm            LA7                     REm                     
    VOZ 1:  Veinte años  cosidos a retazos de urgencias, 
            LA#       LA7
           disimulos y rutinas,
                  Gm                       LA                        
           veinte años cumplidos, en mis brazos, 
            LA7                    REm
          con la carne del alma de gallina.
        
            REm   LA7            REm         
          Veinte años de príncipes azules
                 RE7                SOLm
          que se marchaban antes de llegar,
           SOLm7                        REm              
          veinte tangos de Manzi en los baúles,
              MI         MI7            LA
          veinte siglos sin cartas de papá.
    
    
  • Tablatura
    Intro:
    
    1ra guitarra, punteos
    
         D#°                                          Gm          A
    e|----2--------5--8--6--5-------------------------3-----------0--------|
    B|----1-----7--------------8--7-------------------3-----------2--------|
    G|----2--------------------------8--7-------------3-----------2--------|
    D|----1--------------------------------10--8------5-----------2--------|
    A|------------------------------------------------5-----------0--------|
    E|------------------------------------------------3--------------------|
                                                   E          A
    e|----5-p6-5--8--6--5-----5--------------------0----------0------------|
    B|---------------------8--------6--------------0----------2------------|
    G|-----------------------------------7---------1----------2------------|
    D|---------------------------------------------1----------2--------
  • +
    ¡Colabora con nosotros!
    Envíanos tu versión de esta canción

Letra de Dieguitos y mafaldas
Veinte años cosidos a retazos de urgencias, disimulos y rutinas,
veinte años cumplidos, en mis brazos, con la carne del alma de gallina.
Veinte años de príncipes azules que se marchaban antes de llegar,
veinte tangos de Manzi en los baúles,veinte siglos sin cartas de papá.
De González Catán, en colectivo, a la cancha de Boca, por Laguna,
va soñando -"Hoy ganamos el partido"- la niña de los ojos de la luna.
Los muchachos de "la doce" más violentos, cuando la "junan", en la Bombonera,
le piden, a la Virgen de los Vientos, que, le levante, a Paula, la pollera.
Veinte años de mitos mal curados dibujando dieguitos y mafaldas,
veinte vidas hubiera yo tardado en contar los lunares de su espalda.
Le debo una canción y algunos besos que valen más que el oro del Perú,
sus huesos son sobrinos de mis huesos, sus lágrimas los clavos de mi cruz.
De González Catán, en colectivo, a la cancha de Boca, por Laguna,
va soñando -"Hoy ganamos el partido"- la niña de los ojos de la luna.
Los muchachos de "la doce" más violentos, cuando la "junan", en la Bombonera,
le piden, a la Virgen de los Vientos, que, le levante, a Paula, la pollera.
De González Catán a Tirso de Molina, de España a la Argentina,
qué meneo qué vaivén, qué ajetreo qué mareo, qué ruina ¿y por culpa de quién?
del amor de una mina,¿y total para qué? si, al final, se rajó con un pibe,
que le prohibe a mi ex ir a verme al Gran Rex, cuando estoy de visita,
no sea que Paulita se ponga a llorar, al oír su milonga,
no sea que a Paulita le dé por bailar, al compás de la conga
y vuelva enfermita a González Catán y no se reponga
y se ponga más loca de lo habitual, bendita pollera,
menuda bandera para una canción ¡y que delantera!
aquel año Boca salió campeón, de la Bombonera,
ninguna bostera se puede quejar aunque le sobre razón, si
pinta rameras con el corazón y con las caderas,
le toca a Palermo tocar el balón, "la doce" se altera,
le toca al gallego tocar este son... para una bostera
el año que Boca salió campeón, en la Bombonera.



© LaCuerda.net · aviso legal · privacidad · contacto