Acordes de Guitarra » J »Joaquin Calderón » Algunas Veces (Tab)

Algunas Veces
Joaquin Calderón

Letras, Acordes y Tabs para Guitarra, Bajo y Ukulele

  • E|------------|--------------------
    B|--5---------|--0-----------------
    G|----3-------|----2---------------
    D|------5-----|------2-------------
    A|--------0---|--------0---3---0-1-
    E|------------|----------0---0-----
    
    DO*
    silvia algunas noches me calienta con sus pies
    
    solo algunas veces y hoy fue una que pase
    LA5 la5/sol la5/fa LA5 la5/sol DO*
    contigo,contigo
    
    pero muchas noches me conformo con creer
    que duermes conmigo, que me calentas los pies
    tan frios son, tan frios son
    
    LA5
    me movere,
    
  • Dm7(6):    x5350x
    Am:        x0220x
    G69:       3x220x
    F7M(#11):  1x220x
    Dm7:       x5756x
    G:         3x000x
    E7/G#:     4x243x
    
    
    
    
    Introducción/Arpegio principal:
    
                                    [x2]                                  [x2]
    Dm7(6)                                Am
    ---------x-------|---------x-------|  ---------x-------|---------x-------|
    -------0-x-------|-------0-x-------|  -------0-x-------|-------0-x-------|
    ---5-----x-5---5-|---5-----x-5---5-|  ---2-----x-2---2-|---2-----x-2---2-|
    -----3-------3---|-----3-------3---|  -----2-------2---|-----2-------2---|
    -5---------------|-5---------------|  -0---------------|-0---------------|
    
  • +
    ¡Colabora con nosotros!
    Envíanos tu versión de esta canción

Letra de Algunas Veces
silvia algunas noches me calienta con sus pies
contigo,contigo
pero muchas noches me conformo con creer
que duermes conmigo, que me calentas los pies
tan frios son, tan frios son
me movere,
liberare los pies de nuestra manta y tu
quizas te escapes y aparezcas en algun rincon por la mañana (2)
rara vez escapas a mis golpes de pasion
me amotino en besos que rebosan el colchon
y duermo, y duermo
me movere,
liberare los pies de nuestra manta y tu
quizas te escapes y aparezcas en algun rincon por la mañana
acordes
aunque la cancion se llame silvia me encantaria que fuera
escrito tu nombre, porque es imposible quitarme de la cabeza
tu imagen riendo cuando se te cierran los ojos y se te forma
una arruguita entre ellos. Nunca dejes de tocar, te hace aun
mas maravillosa

Video de Algunas Veces
[]




[Algunas Veces chords][Algunas Veces cifra]
© LaCuerda.net · aviso legal · privacidad · es · en · pt · contacto