Acordes de Guitarra » J »Jesús Adrián Romero » Toda gloria y majestad (Tab)

Toda gloria y majestad
Jesús Adrián Romero

Letras, Acordes y Tabs para Guitarra, Bajo y Ukulele

  •             E 
    Se oye un canto 
                         B 
    en las naciones de la tierra 
       F#m                          C#m 
    exaltado es el señor sobre la creación 
        G#m  
    y su nombre es adorado 
               F#m 
    entre los pueblos 
         A                       B        E/G#       
    y su reino se establece con poder 
            E         E/G# 
    Toda gloria y majestad 
    A                   E         E/G#    
    todo imperio y potestad 
    A                   C#m   
    desde ahora y para siempre 
    F#m7                  B         E/G#   
    al que nos dio la libertad 
    
  • Intro: E C#m-D A-B-C#m F#m A
    
    La notas con guiones son rapidas o de paso y en el primer A entran
    todos los instrumentos.
    
                E
    Se oye un canto
                         B
    en las naciones de la tierra
       F#m                          C#m
    exaltado es el señor sobre la creación
        G#m
    y su nombre es adorado
               F#m
    entre los pueblos
         A                       B        E/G#
    y su reino se establece con poder
            A         E/G#
    Toda gloria y majestad
    A                   E         E/G#
    
  • Intro
    -------------------
    -------------------
    -------------------
    -2-4-6---4---6-2---
    -0-2-4---2---4-0---
    -------------------
    
    
    Solo (3:53)
    12--11--------------------12--11--------------------------------
    -------14--12---------------------14--12------------------------
    ----------------13/(16)-------------------13/(16)--16b(18)-16-16
    ----------------------------------------------------------------
    ----------------------------------------------------------------
    ----------------------------------------------------------------
    
    ----------------------------------------------------------------
    ----------------------------------------------------------------
    ----------13-14--11v--13v--14v--16------------13v--14v-16b(18)16
    -16\(14)-----------------------------13-14-16-------------------
    ----------------------------------------------------------------
    ----------------------------------------------------------------
    
    ----------------------------------------------------
  • LA        MI                          SI
    E     F#  G#   G#  G#  G# A G#  F# E  F# G#
    SE OYE UN CANTO EN LAS NACIONES DE LA TIERRA
    SI  FA#                          DO#
    D#E F#  F#  F# F# F#   F# E  D#  E D# C#
    EXALTADO ES EL SEÑOR , SOBRE LA CREACIÓN
    SOL#                              FA#
    E E  D#    D#  D#D#G#  F#  E  D#   E  E
    Y SU NOMBRE ES A DORADO ENTRE LOS PUEBLOS
    LA                          FA#
    C# D# E C# E  E C# E C#  E   F#F#
    Y SU REINO SE ESTABLECE CON PODER
    CORO 1:
    LA                   MI SOL# LA#                 MI SOL#
    *C#*C# *C#   B   B A  B     *C# *C# *C#  B  B  A  B
     TO DA GLORIA Y MAJESTAD ,   TODO IMPERIO Y POTESTAD
    LA                         DO#
    *C# *C# *C# *C# *C#*D#  E   E G# F# E
    DESDE A HORA Y  PA RA  SIEMPRE
    FA#                    SI MI
    A   A  A    A  G#  A B  B
    AL QUE NOS DIO LA LIBERTAD
    CORO 2:
    LA                  MI SOL#   LA#                MI SOL#
    *C#*C# *C#  *C# B A  B      *C# *C# *C#  B  B  A  B
    TO DA GLORIA Y MAJESTAD ,    TODO IMPERIO Y POTESTAD
    LA     
  • +
    ¡Colabora con nosotros!
    Envíanos tu versión de esta canción

Letra de Toda gloria y majestad
Se oye un canto
en las naciones de la tierra
exaltado es el señor sobre la creación
y su nombre es adorado
entre los pueblos
y su reino se establece con poder
Toda gloria y majestad
todo imperio y potestad
desde ahora y para siempre
al que nos dio la libertad
toda gloria y majestad
todo imperio y potestad
a nuestro dios y padre eterno
y a Jesucristo el salvador.
http://mcenmexico.cjb.net




[Toda gloria y majestad chords][Toda gloria y majestad cifra]
© LaCuerda.net · aviso legal · privacidad · es · en · pt · contacto