Acordes de Guitarra » J »Jesús Adrián Romero » Soy libre de aflicción (Tab)

Soy libre de aflicción
Jesús Adrián Romero

  • Letra y Acordes
    Em        G         A   G  A
     Cuando estaba en angustia
    Em          G     A   G    A
     Tu me hiciste ensanchar
    Em        G     A  G  A
     Me llenaste de gozo
    C                 Bm
     Me inundaste de paz
    
    Em7               A
     Mi lamento cambiaste
    Em7                A
     Y me hiciste danzar
    Em7              A
     Mi silicio rompiste
    C                Bm
     Ahora puedo cantar
    
    
    CORO
    
  • Letra y Acordes
    E-----------------------------------------------------12----10--
    B-8-7-----------10-8/12---------8-12-10-8-10-12-13-13----13-----
    G-----7---9-7-6---------9-9---9---------------------------------
    D-------9-------------------9-----------------------------------
    
    Em              A
    Cuando estaba en angustia
    Em            A
    Tú me hiciste ensanchar
    Em            A
    Me llenaste de gozo
    C                Bm
    Me inundaste de paz.
    
    Em           A
    Mi lamento cambiaste
    Em            A
    Y me hiciste danzar
    Em         A
    Mi silicio rompiste
    
  • Tablatura
    E ------------------------------------------------------------
    A ------------------------------------------------------------
    D ------9------------------------------------7/9--------------
    G --------7-9-7-6--------------------7h9-7h9-----7-----9-7/9--
    B --8-7-----------8/10-8-10h12-10h12---------------8-7--------
    E ------------------------------------------------------------
    
    E ------------------------------------------------------------
    A ------------------------------------------------------------
    D --------------------9---------------------------------------
    G ------------------9---7----------------9-7/9----------------
    B --8-10-10/12-10-8-------8/12-10--7-8-7-------8-10-10/12-10--
    E ------------------------------------------------------------
    
    E ------------------------------------------------------------
    A ------------------------------------------------------------
    D -----------------------14-----------------------------------
    G --12-11-12-------14b16----12--------------------------------
    B -----------12-13--------------------12----10/12-------10/12-
    E ------------------------------10/12----10-------10h12-10/12-
    
  • Tablatura
                   E          S    C             B      E        H   A
    E------------------------------------------------------------------/
    B----8----------------10-8-12-12-10-8----------8---------8-10-12-10-/
    G-11---11----7-9-7---------------------99----7---11-9--7----------/
    E----------9-------11---------------------9-----------------------/
    A------------------------------------------------------------------/
    E------------------------------------------------------------------/
    
    
    
    
         E            H   A[H]                 E   H         H     H
    E------------------------------------------------------------------/
    B----8-------8--10-12-10-12-10---8----8-----------8----10-12-10-12-/
    G------9---7-------------------9---11---11-9--7-9---9--------------/
    D--------9---------------------------------------------------------/
    A-10---------------------------------------------------------------/
    E------------------------------------------------------------------/
    
    
    
  • Tab p/Bajo
    En la cancion no hay bajo pero estas son algunas notas que puedes
    tocar en el bajo
    
    Intro en el solo de guitarra:
    
    G---------------------------------------------------------
    D----------------------------------------------------------
    A-----------------3--3-2---5-6-----------------------------
    E-3-2-0----3-5-----------------0---0-2-3-5---5--0-0-2-3-5—
    
    
    G---------------------------------------------------------
    D---------------------------------------------------------
    A----------------------------3---3-3-3-3-1---1-1-1-1-1----
    E-5-0-2-3-5--5-5-5-5-5-5-5-5------------------------------
    
    Verso
    
    G---------------------------------------------------------
    D---------------------------------------------------------
    A----------------------------------------------3-3--3-2---
    E-0--3--3-5-3-5--0-0--3---3-5-3-5-0-0--3-5-353------------
    
    
    
    G---------------------------------------------------------
    D-------0-00----------------------------------------------
    A-2-2-2------------------------------------
  • Tab p/Bajo
    Agrego algo q la anterior persona dijo....aunque en esta canción
    no haya un bajo definido (pues los q saben de la historia d JAR)
    sabrán q no hubo bajo fijo, pero las notas q publico están mal...
    
    Yo como bajista les presento una opción, q pueden tomarla, dejarla,
    modificarla, etc.
    
    
    Intro
    
    Primero rasguea solo la guitar acustic
    Luego entras con esto
    
    G:-------------|--------------|-------------|-------------
    D:---2---------|--------------|-------------|-------------
    A:-------------|--------------|-----3-------|-------------
    E:-------------|--------------|-----------—-|-------------
    
    Ya cuando entran todos los instrumentos
    
    G:------------|--------2-----|-------------|-------4---------
    D:-------2----|------2---2---|-------------|-----4---4------(x2)
    A:-----2---2--|-0-0-------0--|-3--3--3--3--|-2-2-------2—----
    E:-0-0--------|--------------|-------------|-------------7s0-
    
    Estrofa
    
    Primero solo guitarra (1 tiempo)
    
    G:-------------|--------------|-------------|-------------
    D:------
  • +
    ¡Colabora con nosotros!
    Envíanos tu versión de esta canción

Letra de Soy libre de aflicción
Cuando estaba en angustia
Tu me hiciste ensanchar
Me llenaste de gozo
Me inundaste de paz
Mi lamento cambiaste
Y me hiciste danzar
Mi silicio rompiste
Ahora puedo cantar
Mi corazon agradecido esta por tu bondad senor
Soy libre de aflicción y tu perdon hizo nacer en mi una
Nueva cancion desde mi corazon
Por favor mandenme sus sugerencias y comentarios a
aldric_lopez@hotmail.com



© LaCuerda.net · aviso legal · privacidad · contacto