Acordes de Guitarra » J »Jesús Adrián Romero » No hay argumento (Tab)

No hay argumento
Jesús Adrián Romero

Letras, Acordes y Tabs para Guitarra, Bajo y Ukulele

  • Bm7
    
    Pon el dedo indice en el la 5ta cuerda y en el 2do traste
    luego pon el dedo medio en la 3ra cuerda y en el 2do traste
    y luego pon,el dedo que sigue o anular en la 2da cuerda
    y en el 3er traste.
    
    
    G/D
    
    Pon el dedo indice en el la 5ta cuerda y en el 2do traste
    y luego pon,el dedo que sigue o anular en la 2da cuerda
    y en el 3er traste.
    
    No mas en la intro hay que jugarle con los arpegios.
    
    
    Bm               F#m
    No hay argumento ni juicio contra mi
    Bm                  F#m
    
  • Bm                             F#m
    No hay argumento ni juicio contra mi
    Bm                            F#m
    El con su sangre me vino a derrimir
    Em                       A
    Libre de condenacion
                                       G
    Ya no soy mas un deudor
                         F#7
    El ha pagado la deuda por mi 
    
    Bm                             F#m
    Yo era culpable y me otorgo el perdon
    Bm                               F#m
    Manto de gracia de pronto me cubrio
    Em                    A
    Mis pecados el borro
                           G
    Y mi cuenta cancelo
                      A              F#
    
  • Bm               F#m7/6
    No hay argumento ni juicio contra mi
    Bm                  F#m7/6
    El con su sangre me vino a redimir
    Em               A2                     G2
    Libre de condenación ya no soy mas un deudor
                     F#7
    El ha pagado la deuda por mi
    
    Bm                   F#m7/6
    Yo era culpable y me otorgo el perdón
    Bm                   F#m7/6
    Manto de gracia de pronto me cubrió
    Em              A2                   G2
    Mis pecados el borro y mi cuenta cancelo
                      A           F#sus F#
    El ha pagado la deuda por mí
    
    Coro:
    
    
  •     Bm7(11)                    Dsus2/G
    e |-----------------0----------|---------------0----------|
    b |----------3---------3-------|--------3---------3-------|
    g |--------2----2---------2----|------2----2--------------|
    D |------0--------0------------|----0--------0------------|(X4)
    A |----2-----------------------|--------------------------|
    E |----------------------------|--3-----------------------|
    
    
    
    Bm7(11)               F#m7(11)/C#     D - Bm7/C#
    NO HAY ARGUMENTO, NI JUICIO CONTRA MI,
    
    Bm7(11)              F#m7(11)/C#     D - A/C#
    EL CON SU SANGRE, ME VINO A REDIMIR,
    
    Em7               Asus2                   Gmaj7
    LIBRE DE CONDENACIÓN, YA NO SOY MAS UN DEUDOR,
    
                     F#7sus4   F#7
    
  • solo de guitarra acustica
    
    Bm
    
    E-9-10-9-10s12-910-----10-12-13-12-10----------------------------------------
    B-------------------10-----------------1010------------------
    G------------------------------------------------------
    D------------------------------------------------------
    A------------------------------------------------------
    E------------------------------------------------------
    
    E-12-10-99-----------10-9---------------------------------------
    B----------1212-10-------10-77--------7-10--------------------------
    G------------------------------9v--7-9-----9-9-7--7-9-----------
    D------------------------------------------------9------
    A------------------------------------------------------
    E------------------------------------------------------
    
    E------------------------------------------------------
    B------------------10-12----10-12-10-----------------------------
    G-------------9-11-------11---------------------------------
    D-7h9-9-11-12------------------
  • //Bm  F#m   Em//
    Trascripción a guitarra
    Se puede omitir (quitar) el -9- en D
    
    Bm                                   F#m
    e---------------------------------/-----------------------------
    B-12----11------12-----11---------/-12----11----12---11------11-
    G---11-----11------11----11--9-11-/---11----11----11---11--11---
    D-----9-------9------9-----9------/-----9-----9-----9----9------
    A---------------------------------/-----------------------------
    E---------------------------------/-----------------------------
    
    Em                                 A
    e-------------------------------/-----------------------------
    B-12----11----12----11----------/-12---11---12----11----------
    G---11----11----11----11---9-11-/---9----9----9-----9--9-11---
    D-----9-----9-----9------9------/----9----9-----9----9--------
    A-------------------------------/-----------------------------
    E-------------------------------/-----------------------------
    
    
  • +
    ¡Colabora con nosotros!
    Envíanos tu versión de esta canción

Letra de No hay argumento
Pon el dedo indice en el la 5ta cuerda y en el 2do traste
luego pon el dedo medio en la 3ra cuerda y en el 2do traste
y luego pon,el dedo que sigue o anular en la 2da cuerda
y en el 3er traste.
Pon el dedo indice en el la 5ta cuerda y en el 2do traste
y luego pon,el dedo que sigue o anular en la 2da cuerda
y en el 3er traste.
No mas en la intro hay que jugarle con los arpegios.
No hay argumento ni juicio contra mi
El con su sangre me vino a redimir
Libre de condenación ya no soy mas un deudor
El ha pagado la deuda por mi
Yo era culpable y me otorgo el perdón
Manto de gracia de pronto me cubrió
Mis pecados el borro y mi cuenta cancelo
El ha pagado la deuda por mí
//Ahora soy libre y esclavo por amor
Precio de sangre Jesús por mi pago//
El marco mi corazón propiedad soy del Señor.
[Sube a “C#m”]´(Aqui puedes colocarel capo en el
2do traste
//Ahora soy libre y esclavo por amor
Precio de sangre Jesús por mi pago//
El marco mi corazón propiedad soy del Señor.




[No hay argumento chords][No hay argumento cifra]
© LaCuerda.net · aviso legal · privacidad · es · en · pt · contacto