Acordes de Guitarra » J »Jesús Adrián Romero » Mi Entorno (Tab)

Mi Entorno
Jesús Adrián Romero

Letras, Acordes y Tabs para Guitarra, Bajo y Ukulele

  • [Fm7] [Eb/G] [Ab] [Fm7] [Ab/Eb] [Dbmaj9]
    [Fm7] [Eb/G] [Ab] [Dbmaj7] [Ebsus] [Eb]
    
    No [Fm7] se donde co- [Eb/G] mienzas tú
    [Ab] no [Fm7] se donde ter- [Ab/Eb] mino yo
    [DbMaj9] mi'en- [Fm] torno
    se lle- [Eb/G] nó de ti [Ab]
    y mi'interior [Eb] [Ebsus] [Eb]
    
    Y [Fm7] mi manera [Eb/G] de pensar
    [Ab] y [Fm7] MI manera [Ab/Eb] de sentir
    [DbMaj7] cam- [Fm7] biaron
    al cre- [Eb/G] cer tu'amor
    [Ab] dentro de MI [Ebsus] [Eb]
    
    [Bbm] Y nada cambia- [Db] ría
    quiero'estar así [Eb] [Ebsus] [Eb]
    [Bbm7] muriendo cada [Db] día
    para verte'en mi [Eb] [Db/F] [Eb/G]
    
    
  • INTRO:  Em  D  G  C
    
    Estrofa 1
    
     Em          D         G
     No se donde comienzas tu
     Em         D         C
     No se donde termino yo
     Em           D         G
     Mi entorno se lleno de ti
             D
     Y mi interior
     Em        D        G
     Y mi manera de pensar
      Em        D        C
     Y mi manera de sentir
      Em           D           G
     Cambiaron al crecer tu amor
             D
     Dentro de mi
    
  • INTRO:  Em  D  G  C
    
    Estrofa 1
    
     Em          D         G
     No se donde comienzas tu
     Em         D         C
     No se donde termino yo
     Em           D         G
     Mi entorno se lleno de ti
             D
     Y mi interior
     Em        D        G
     Y mi manera de pensar
      Em        D        C
     Y mi manera de sentir
      Em           D           G
     Cambiaron al crecer tu amor
             D
     Dentro de mi
    
  • e --------------------------------------
    B -----------3-1-0-----0-0--------------
    G ------0-2--------2-0-----0------0-----
    D ----0----------------------4s5--2-----
    A --------------------------------3-----
    E --0-----2----3-------0-----2s3--------
    
    e --------------------------------------
    B -----------3-1-0-----0---0------------
    G ------0-2--------2-0---0---2----------
    D ----0---------------------------------
    A --------------------------------------
    E --0-----2----3-------0----------------
    
    
    El arpegio de las estrofas va asi:
    
    e ----------------------------------------
    B ----------------------------------------
    G --------2---2-4---------2-0---0---------
    
  • E ---------------------------------------
    B ------------3-1-0----------------------
    G ------0-2---------2-0--0-4(4)-0--------
    D ----0-----0----------------4----4---2--
    A ------------------------------------3--
    E --0-----2-----3--------0---------------
    
    E ---------------------------------------
    B ------------3-1-0----------------------
    G ------0-2---------2-0-4--0----2--------
    D ----0-----0----------------0------4-0--
    A ---------------------------------------
    E --0-----2-----3-------0--------2-------
    
    
    El arpegio de las estrofas va asi:
    
    Primera Estrofa
    
      Mm7            D/F#    G      Mm7         Dadd4    C
    
  •     Fm7   Eb/G      Ab          Fm7 Ebadd4 Db
    e-|--------------------------------------------|
    B-|-------------3--1---0------------0----------|
    G-|-----0--2--------------2--0--0-------0------|
    D-|---0-------0---------0--0--0------4----2----|
    A-|-----------------------------------5-----3--|
    E-|-0-------2--------3------------0------------|
    
        Fm7   Eb/G    Ab         Fm7        Ebadd4
    e-|--------------------------------------------|
    B-|-------------3--1---0--------0-----0--------|
    G-|-----0--2--------------2--0-------0--2------|
    D-|---0-------0---------0--0--0-----------4----|
    A-|-------------------------------3---------5--|
    E-|-0-------2--------3-------------------------|
    
    ESTROFA 1:
    
       Fm7         Eb/G    Ab
    No se donde comienzas tú
    
  • +
    ¡Colabora con nosotros!
    Envíanos tu versión de esta canción

Letra de Mi Entorno
No [Fm7] se donde co- [Eb/G] mienzas tú
[Ab] no [Fm7] se donde ter- [Ab/Eb] mino yo
[DbMaj9] mi'en- [Fm] torno
se lle- [Eb/G] nó de ti [Ab]
y mi'interior [Eb] [Ebsus] [Eb]
Y [Fm7] mi manera [Eb/G] de pensar
[DbMaj7] cam- [Fm7] biaron
al cre- [Eb/G] cer tu'amor
[Bbm] Y nada cambia- [Db] ría
quiero'estar así [Eb] [Ebsus] [Eb]
[Bbm7] muriendo cada [Db] día
para verte'en mi [Eb] [Db/F] [Eb/G]
[Ab] LLenas mi'es- [Eb] pacio
llenas mi [Fm7] vida
me'ilumi- [Db] naste
como'el sol [Ab]
quiero que [Eb] crezcas
y todos los [Fm] días
ser un rem [Db] flejo de tu'amor
Con [Fm7] el sonido [Eb/G] de tu voz [Ab2]
el [Fm7] viaje'emprende- [Ab/Eb] ré
por ti [DbMaj9]
Mis [Fm] pies me lleva- [Eb/G] rán
a don- [Ab] de quieras ir [Eb] [Ebsus] [Eb]
Y [Fm7] todo lo que [Eb/G] soy Señor [Ab]
Mis [Fm7] planes y mi [Ab/Eb] corazón [DbMaj7
] Hoy [Fm7] giran a tu'al- [Eb/G] rededor [Ab]
rendido'estoy [Ebsus] [Eb]
Y nada cambiaría ....
Eres mi'en- [Ab/Gb] torno,
eres mi [Fm7] vida
me'ilumi- [Db/F] naste
co- [Eb/G] mo'el [Ab] sol.




[Mi Entorno chords][Mi Entorno cifra]
© LaCuerda.net · aviso legal · privacidad · es · en · pt · contacto