Acordes de Guitarra » J »Jesús Adrián Romero » Gloria, Reino y Poder (Tab)

Gloria, Reino y Poder
Jesús Adrián Romero

Letras, Acordes y Tabs para Guitarra, Bajo y Ukulele

  • G#m7    G#m6     EMaj7/G#
    Toda riqueza y honor
         F#/G#    G#m7   Emaj7
    Fortaleza y loor
         F#          G#m7 D#m7
    Sean dadas al Cordero
          G#m6     EMaj7/G# G#m7
    Sabiduria y poder
        F#/G#   G#m7  Emaj7
    Alabanzas trer
              F#            G#m7  (F#) - B
    Al que en todo es el primero
                     D#7               C#m7
    Pues nos ha resimido con su sangre
                          G#m7       (F#) - B
    Somos su pueblo somos su nacion
                          D#7        C#m7
    De toda lengua y de todo linaje
                          G#m7
    Nos ha escogido para Dios
    
  •   B7add11/G#  C#9aug   B6add11
        Toda    Riqueza y Honor
            F#       B7add11/G#
        Fortaleza y Loor
      B6add11   F#       B7add11/G#      F#
        Sean dadas al Cordero
      B7add11/G#  C#9aug    B6add11
        Sabi  -   duría y Poder
           F#       B7add11/G#
        Alabanzas traer
      B6add11     F#            B7add11/G#
        Al que en todo es El primero
          B           D#7
        Pues nos ha redimido por Su Sangre
       F#7sus4                  B7add11/G#
        Somos su pueblo, somos su nación
          B                  D#7
        De toda lengua y de todo linaje
       F#7sus4                B7add11/G#
        Nos has escogido para Dios.
    
  • Este es el intro de esta cancion esta de pelos.
    Sacala, es original solo le tienes que dar el sabor...
    
    Intro:  G#m
    
    E |--------------------------------------------------|
    A |--------------------------------------------------|
    D |--------------------------------------------------|
    G |--------------------------------------------------|
    B |----9-12------------------12----------12--11--8---|
    E |----------11--12-9--12-11------11--9--------------|
    
    
    
    E |--------------------------------------------------|
    A |--------------------------------------------------|
    D |--------------------------------------------------|
    G |--------------------------------------------------|
    B |----9-12------------------12----------8--9--11----|
    E |----------11--12-9--12-11------11--9--------------|
    
    
    E |--------------------------------------------------|
    A |--------------------------------------------------|
    D |--------------------------------------------------|
    G |--------------------------------------------------
  • E |--------------------------------------------------|
    A |--------------------------------------------------|
    D |--------------------------------------------------|
    G |--------------------------------------------------|
    B |----9-12------------------12----------11--8-------|
    e |----------11--12-9--12-11------11--9--------------|
    
    E |--------------------------------------------------|
    A |--------------------------------------------------|
    D |--------------------------------------------------|
    G |--------------------------------------------------|
    B |----9-12------------------12----------8--9--11----|
    e |----------11--12-9--12-11------11--9--------------|
    
    
    E |--------------------------------------------------|
    A |--------------------------------------------------|
    D |--------------------------------------------------|
    G |--------------------------------------------------|
    B |----9-12------------------12---------11--8--------|
    
  • ola que tal, Soy yo de nuevo, josue, y en esta ocasion les traigo
    esta cancion que es muy buena y chida.
    
    Esta version de la cancion es del disco "Unplugged"
    Les dejo la cancion:
    
    Afinacion: G D A E B
    
    Intro:
    G |----8--9--6--9--8--4--8--6-------------8--9--6--9--8--4--8--6------
    D |6-9------------------------8--5---6--9------------------------5-6-8
    A |--------------------------------6----------------------------------
    E |-------------------------------------------------------------------
    B |-------------------------------------------------------------------
    
    G ----8--9--6--9--8--4--8--6-------------8--9--6--9----------------|
    D 6-9------------------------8--5---6--9-------------------4-4---6-|
    A --------------------------------6----------------------6-----6---|
    E ---------------------------------------------------4-4-----------|
    B -----------------------------------------------------------------|
    
    
    Versos:
    G |------------------------------------------------------------------
    D |------6
  • +
    ¡Colabora con nosotros!
    Envíanos tu versión de esta canción

Letra de Gloria, Reino y Poder
Toda riqueza y honor
Fortaleza y loor
Sean dadas al Cordero
Sabiduria y poder
Alabanzas trer
Al que en todo es el primero
Pues nos ha resimido con su sangre
Somos su pueblo somos su nacion
De toda lengua y de todo linaje
Nos ha escogido para Dios
Gloria reino y poder
Sean para El eternamente
Gloria reino y poder
Eternamente y para siempre
Emaj7/G#
______/
||||||
|00|||
||||||
0||000
||||||




[Gloria, Reino y Poder chords][Gloria, Reino y Poder cifra]
© LaCuerda.net · aviso legal · privacidad · es · en · pt · contacto