Tablatura de Jesús Adrián Romero: Al estar ante tí
Jesus adrian romero
Te dare lo mejor [2004]
Esta se toca en D

Intro

e|---14-15-17-15-14-------14-15-15-14-------------14---------------
B|------------------17-17-------------17-15-15-17----17-15/17-14---
G|-----------------------------------------------------------------
D|-----------------------------------------------------------------
A|-----------------------------------------------------------------
E|-----------------------------------------------------------------



e|-----------------------------------------------------------------
B|-----------------------------------------------------------------
G|-----------------------------------------------------------------
D|--11-12-14-12-11-------11-12-12-11-------------11----------------
A|-----------------14-14-------------14-12-12-14----14-12/14-11----
E|-----------------------------------------------------------------


Solo
e|---------12-11-11-9-9--------------12-9-9-11---12----------------
B|-9-10-12--------------12---9-10-12-----------9-------------------
G|-----------------------------------------------------------------
D|-----------------------------------------------------------------
A|-----------------------------------------------------------------
E|-----------------------------------------------------------------

Mis amigos es algo muy sencillo pero de todo corazon,
porque es para el Rey de Reyes..
en cualquir cosa que les pueda ayudar ronnyvrr@hotmail.com  Bendiciones
Este fichero es trabajo propio de su transcriptor y representa su interpretación personal de la canción. El material contenido en esta página es
para exclusivo uso privado, por lo que se prohibe su reproducción o retransmisión, así como su uso para fines comerciales.
© LaCuerda.net · aviso legal · privacidad · contacto