Acordes de Guitarra » J »Javiera y los Imposibles » Humedad (Tab)

Humedad
Javiera y los Imposibles

Letras, Acordes y Tabs para Guitarra, Bajo y Ukulele

  • Intro:    C    D7          Em D#m Dm
           e--8---------------5/7-7-6-5--------5---------
           B--8--6/8--6--5----6/8-8-7-6----3/5---5-3-----
           G------7/9--7--5---------------------------5--- X2
           D----------------------------------------------
           A----------------------------------------------
           E----------------------------------------------
    
    
    Verso 1)
    
               C           D7   Am   G
       Cuando la noche me tome
                           C   D7   Am   G
       Y me lleve hacia atrás
                 C        D7   Am   G
       No habrá luz ni miradas
                        C   D7   Am   G
       Ni destellos de mar
    
    
  •  DO  Rem/Mim REm DO   MIm-MIm-RE#m-REm
    
     e--8---------------5/7-7-6-5--------5---------
     B--8--6/8--6--5----6/8-8-7-6----3/5---5-3-----
     G------7/9--7--5---------------------------5-- X2
     D---------------------------------------------
     A---------------------------------------------
     E---------------------------------------------
    
    Luego de esto comienza el rasgueo del guitarrista del grupo
    que suena en un tono agudo. Esto es solo para el primer párrafo.
    Él toca los acordes DoM - Do* - Lam - SolM:
    
       DO   DO*  LAm  SOL 
     e--8----8----8---10-----
     B--8----8----10--12-----
     G--9----9----9---12-----
     D--10---12---8---12-----
     A--10---10-------10-----
     E--8----8--------10-----
    
  • +
    ¡Colabora con nosotros!
    Envíanos tu versión de esta canción

Letra de Humedad
Verso 1)
Cuando la noche me tome
Y me lleve hacia atrás
No habrá luz ni miradas
Ni destellos de mar
Verso 2)
(En esta parte la primera guitarra hace la intro)
y si el día aparece
No veras el color
De mi corazón fuerte
Apagando al dolor
Estribillo: Arpegio melódico
Qué es esta humedad que siento
Un viento que arrasa adentro Pausado
Qué es esta humedad que siento
Verso 1)
Cuando la noche me tome
Y me lleve hacia atrás
No habrá luz ni miradas
Ni destellos de mar
Verso 2)
y si el día aparece
No verás el color
De mi corazón fuerte
Apagando al dolor
Estribillo: Arpegio melódico
Qué es esta humedad que siento
Un viento que arrasa adentro
Los días más cortos son los más largos
Sin ti
Un lago de mármol blanco Pausado
De comienzo a fin
Arpegio Melódico del estribillo Se toca hasta el final
Esta melodía se toca junto al arpegio melódico al final
Saludos a todos los guitarreros chilenos y una mención muy especial
a la mejor banda emergente de chile.
Ley del mono




[Humedad chords][Humedad cifra]
© LaCuerda.net · aviso legal · privacidad · es · en · pt · contacto