Acordes de Guitarra » J »Jaf » Maravillosa esta noche (Tab)

Maravillosa esta noche
Jaf

Letras, Acordes y Tabs para Guitarra, Bajo y Ukulele

  • ACORDES:> G  D  C  Em  Bm
    TABLATURA:
    1)-----------------------------------------------
    2)--------------------------------10-------------
    3)-12^14*--12-14--12^14*----12^14----------------
    4)-----------------------14----------12-14-16-14-
    5)-----------------------------------------------
    6)-----------------------------------------------
    NOTA:cuando aparece este signo ^ hago referencia a ligar
    con tapping. Cuando aparece este otro signo * hago referencia a
    estirar la cuerda para abajo( o para arriba...como les quede mas
    comodo)
    
    INTRO: G  D C   D
    
    G              D
    ES TARDE A LA NOCHE
    C          D
    ELLA BUSCA QUE VESTIR
    G              D   C            D
    
  • SOL RE/FA# DO RE
    SOL RE/FA# DO RE
    
    SOL            RE/FA#
    ES TARDE A LA NOCHE
    DO         RE
    ELLA BUSCA QUE VESTIR
    SOL            RE/FA# DO           RE
    DESPUES SE MAQUILLA Y PEINA SU LARGO PELO
    DO        RE  SOL RE/FA# MIm MIm7/RE
    Y ME PREGUNTA..¿ME VEO BIEN?
            DO        RE           SOL   RE/FA#   DO   RE
    LE DIGO SÌ, ESTAS MARAVILLOSA HOY
    
    SOL         RE/FA#
    VAMOS A LA FIESTA
    DO             RE
    Y TODOS GIRAN PARA VER
    SOL            RE/FA#  DO          RE
    A ESTA HERMOSA DAMA QUE CAMINA JUNTO A MI
    
  • INTRO: G  D C   D
    
    G              D
    ES TARDE A LA NOCHE
    C          D
    ELLA BUSCA QUE VESTIR
    G              D   C            D
    DESPUES SE MAQUILLA Y PEINA SU LARGO PELO
    C         D   G     D   Em
    Y ME PREGUNTA..¿ME VEO BIEN?
            C         D            G     D     C    D
    LE DIGO SÌ, ESTAS MARAVILLOSA HOY
    G           D
    VAMOS A LA FIESTA
    C              D
    Y TODOS GIRAN PARA VER
    G              D   C           D
    A ESTA HERMOSA DAMA QUE CAMINA JUNTO A MI
    C        D   G       D      Em
    Y ME PREGUNTA..¿TE SIENTES BIEN?
    
  • Esta 100 % correcta.Me canse de verla mal transcripta.
    Escuchenla bien para saber los tiempos. fijense que a la viola
    
    pone algun efecto, es minimo pero resalta y aveces le manda un
    pequeño delay.-
    
    b - estirar la cuerda
    BF- estirar la cuerda a full
    h  - hammer pull
    p  - pull off
    x  - scratch es la cuerda apagada del todo
    *  - vibrar
        lo que esta entre parentesis significa que vuelve a su nota
    
    
    INTRO X 2
    
    e|--------------------------------------------------|
    B|--------------------------------------------------|
    G|------14b(14)-12-14*-----14b(14)-12---------------|
    D|---12-----------------12------------14*-----------|
    A|--------------------------------------------------|
    E|--------------------------------------------------|
    
    e|--------------------------------------------------|
    B|--------------------------------------------------|
    G|------14b(14)-12-14*-----------12*----------------|
    A|---12----------------12-12-14---------------------|
    D|-------------------------------------------
  • e---------------------------------------------------------
    B---------------------------------------------------------
    G-----14-12-14-----14-12--------14-12-14-------------12-12     X 2
    D--12-----------12-------14--12-----------12-12--14-------  (SE HACE
    A---------------------------------------------------------  DOS VECES)
    E---------------------------------------------------------
    
    CANTO
    
            ARREGLO MENCIONADO ARRIBA (C,D,C#,C)
                       C                                          D   C#  C
    e--7-7-8-7----10---8----7-7-8-7-------7-------7-7-8-7----10---10--9---8----
    B----------10------8------------10--7---10-8----------10------10--9---8----
    G------------------9------------------------------------------11--10--9----
    D------------------10-----------------------------------------12--11--10---
    A--------------------------------------------------------------------------
    E--------------------------------------------------------------------------
    
    
    e--7-7-8-7-------7---------12-12-12-10------------7-7-10-
    
  • 5-5-(5)-5-(4)-6
    5-5-(5)-5-(4)-(4)-5-(4)-3     Repite 2 veces
    
    (6)-(6)-(6)-6-(4)-5-5-6-3
    3-(3)-4-(4)-(4)-4-(3)-(3)-(3)-3-3
    
    5-6-(6)-(6)-(6)-5-6-6-6-(5)-(5)-5-5-5-(4)-4
    5-6-(6)-(6)-5-6-6-6-(6)-(6)-6-6-6-(5)-5
  • +
    ¡Colabora con nosotros!
    Envíanos tu versión de esta canción

Letra de Maravillosa esta noche
TABLATURA:
con tapping. Cuando aparece este otro signo * hago referencia a
estirar la cuerda para abajo( o para arriba...como les quede mas
comodo)
ES TARDE A LA NOCHE
ELLA BUSCA QUE VESTIR
DESPUES SE MAQUILLA Y PEINA SU LARGO PELO
Y ME PREGUNTA..¿ME VEO BIEN?
LE DIGO SÌ, ESTAS MARAVILLOSA HOY
VAMOS A LA FIESTA
Y TODOS GIRAN PARA VER
A ESTA HERMOSA DAMA QUE CAMINA JUNTO A MI
Y ME PREGUNTA..¿TE SIENTES BIEN?
LE DIGO SÌ, ESTOY MARAVILLOSO HOY
ME SIENTO MUY BIEN
PUES VEO EL AMOR EN SUS OJOS HOY
Y LO GRANDE, LO MEJOR
ES QUE AUN NO SE DA CUENTA CUANTO LA AMO
TIEMPO DEL RETORNO
FINJO MALESTAR, LE DOY
LAS LLAVES DEL AUTO
ME AYUDA A IR A LA CAMA
Y ENTONCES DIGO,MIENTRAS APAGO LA LUZ
DIGO QUERIDA ESTAS MARAVILLOSA HOY
OH MY DARLING YOU WERE WONDERFUL TONIGHT
DEDICADA A aNyTa!!!......``PORQUE VAS CONMIGO POR DONDE QUIERA
QUE YO VAYA``..CON TODO MI AFECTO.......(Y AUN LE DOY LAS
LLAVES DEL AUTO JAJAJJ)
fRaNk!




[Maravillosa esta noche chords][Maravillosa esta noche cifra]
© LaCuerda.net · aviso legal · privacidad · es · en · pt · contacto