Acordes de Guitarra » I »Ismael Miranda » Las esquinas son (Tab)

Las esquinas son
Ismael Miranda

Letras, Acordes y Tabs para Guitarra, Bajo y Ukulele

  • Ahora esta pachanga festiva que, aunque ustedes no
    lo crean, es autoría del Maestro Rubén Blades, cuando
    éste aún estaba en el anonimato, pero se daba a conocer
    con sus creaciones para otros cantantes.
    
    Intro:
    
    G ----9-7-------7--------------------7----------|
    D -7-------7-5--------9-7-------7-5--------9-7--|
    A -----------------7-------7-5----------7-------|
    E ----------------------------------------------|
    
    G ----9-9-7-------7-7--------------------|-------------|
    D -7---------7-5---------9-7-------7-----|-5-5-5-5-----|
    A --------------------7-------7-5-----5--|----------5--|
    E ---------------------------------------|-------------|
    
    
    Versos:
    
    "Las esquinas son... iguales en todos lao's"... (bis)
    
    G ----9-7-------7-----------------------7-----|
    D -7-------7-5-----5---9-8-7-------7-5-----5--|
    A ----------------------------7-5-------------|
    E --------------------------------------------|
    
    "En Panamá o en Borinquen, sirven para estar parao"... (bis)
    
    G ---------------------------9-7--
  • +
    ¡Colabora con nosotros!
    Envíanos tu versión de esta canción



Video de Las esquinas son
[ver más videos]




[Las esquinas son chords][Las esquinas son cifra]
© LaCuerda.net · aviso legal · privacidad · es · en · pt · contacto
DINAMICO