Acordes de Guitarra » I »Isaac Albeniz » Bajo la palmera (Tab)

Bajo la palmera
Isaac Albeniz

Letras, Acordes y Tabs para Guitarra, Bajo y Ukulele

  •      S. S S. E  S S    S. S S. E  S S    S. S S. E  S S
    E||-----------------|-----------------|-----------------|
    B||-----------------|-------0--1--2---|-----------------|
    G||--2--1-2-----2---|--1--2---------2-|--2--1-2-----2---|
    D||----------4----4-|--2--------------|----------4----4-|
    A||-----------------|-----------------|-----------------|
    E||-----------------|--0--------------|-----------------|
    
    
      S. S S. E  S S    H           H           H
    -----------------|--5--------|--5--------|--5--------|
    -------0--1--2---|--7--------|--7--------|--8--------|
    --1--2---------2-|-----------|--5--------|--6--------|
    --2--------------|--7--------|--7--------|--7--------|
    -----------------|-----------|-----------|-----------|
    --0--------------|-----------|-----------|-----------|
    
    
      E   E   E   E      E   E   Q       E   E   E   E
    -----10---9--10--|----------------|-----------------|
    -----12--10--12--|--12--14--10----|----------8--10--|
    -----11----------|--12--14--11----|-----11----------|
    ---
  • +
    ¡Colabora con nosotros!
    Envíanos tu versión de esta canción



Video de Bajo la palmera
[]




[Bajo la palmera chords][Bajo la palmera cifra]
© LaCuerda.net · aviso legal · privacidad · es · en · pt · contacto