Tablatura para Bajo de Invisible: Los libros de la buena memoria
Conexión · Inscripción
Letras y Acordes
Pantalla Completa
Imprimir
Versión Texto
Añadir Favorito
Otras Versiones

Mostrar Diagramas
Desfile Automático
Formato del Texto


Los libros de la buena memoria(BAJ)

Invisible

calidad:
invi0032
AUTOR: Invisible
ALBUM: desconocido
Enviado por victor
Los guiones marcan la mitad de cada compasa si se ubican en el tiempo.

0:08

   -           -           -           -
G|-----------------------------------------------    \
D|-----------------------------------------------    |
A|-7-----7-----------------5-----5----3---------0    |
E|-----------7-5-----5---5-----------------------    |
                                                     |Parte
   -           -           -           -             |  A
     “El vino entibia sueños al jadear…              |
G|-----------------------------------------------    |
D|-----------------------------------------------    |
A|-7-----7--------------------------------------0    |
E|-----------7-5-----5---5-7----------8----------    /

Repite parte A. Despues:

   -           -           -           -
     …se queda oyendo como un ciego frente al mar…
G|-----------------------------------------------
D|-----------------------------------------------
A|-7-----7-----------------5-5-5-5----3---------0
E|-----------7-5-----5---5-----------------------

   -           -           -
     …mi voz le llegara, mi boca tambien…
G|-----------------------------------------------
D|-----------------------9------------------9----
A|-----------5-7-----7----------------7---7---7-9
E|-7-----7-----------------7-----7---------------

   -           -           -           -           -           -
     …tal vez le confiare que eras el vestigio del futuro…
G|------------------------------------------------------------------------
D|------------------------------------------------------------------------
A|-------------7-----7---------------------------------------------------5
E|-7-----7-------------7---5-5-5-5-5-5-7-7-7-7-----8----------------------

Repite parte A (2 veces). Despues:

   -           -           -           -
     …pues yo te escribire, yo te hare llorar…
G|-------------------------------------------------
D|---------------------7h9------------------9------
A|-------------7----7-----------------7-------7-7h9
E|-7-----7---7-------------7-----7-----------------

   -           -           -           -           -           -
     …mi boca besara toda la ternura de tu acuario…
G|------------------------------------------------------------------------
D|------------------------------------------------------------------------
A|-------------7-----7---------------------------------------------------5
E|-7-----7---7---------7-6-5-5-5-5-5-5-7-7-7-7-----8----------------------

   -           -           -          -
G|-----------------------------------------------   \
D|-----------------------------------------------   |
A|-7-----7--------------------------------------0   |
E|-----------7-5-----5---5-7-7-7-7----8----------   |
                                                    | Parte
   -           -           -          -             |   B
G|-----------------------------------------------   |
D|-----------------------------------------------   |
A|-7---3/5---6-6-----6--------------------------0   |
E|-------------------------7-7-7-7----8----------   /

Repite parte B. Despues:

   -           -           -           -
     …mas si la luna enrojeciera en sed…
G|-----------------------------------------------
D|-----------------------------------------------
A|-7-----7-----------------5-----5----3---------0
E|-----------7-5-----5---5-----------------------

   -           -           -           -
     …o las impalas recorrieran tu estanque……
G|-----------------------------------------------
D|-----------------------------------------------
A|-7-----7--------------------------------------0
E|-----------7-5-----5---5-7----------8----------

   -           -           -           -
     …no volverias a triunfar en tu alma…
G|-----------------------------------------------
D|-----------------------------------------------
A|-7-----7--------------------------------------0
E|-----------7-5-----5---5-7----------8----------

   -           -           -           -
     …yo se que harias largos viajes por llegar…
G|-----------------------------------------------
D|-----------------------------------------------
A|-7-----7-----------------5-----5----3---------0
E|-----------7-5-----5---5-----------------------

   -           -           -           -
     …parado estoy aquí, esperandote…                  \
G|-------------------------------------------------    |
D|---------------------7h9------------------9------    |
A|-------------7----7-----------------7-------7-7h9    |
E|-7-----7---7-------------7-----7-----------------    |  Parte C
                                                       |____________________
   -           -           -           -           -           -            |
     …todo se oscurecio, ya no se si el mar descansara…                     |
G|------------------------------------------------------------------------  |
D|------------------------------------------------------------------------  |
A|-------------7-----7----------------------------------------------------  |
E|-7-----7---7---------7-6-5-5-5-5-5-5-7-7-7-7-----8----------------------  /

Repite parte A (3 veces). Despues:

   -           -           -           -
    …esta botella se ha vaciado tambien…
G|-----------------------------------------------
D|-----------------------------------------------
A|-7-----7-----------------5-----5----3---------0
E|-----------7-5-----5---5-----------------------

   -           -           -           -
     …que ni los sueños se cobijan del rumor…
G|-----------------------------------------------
D|-------------------------------------------10--
A|-7-----7--------------------------------------0
E|-----------7-5-----5---5-7----------8----------

Repite parte C.


 /: slide up (“arrastrar” hacia adelante)
 h: hammer on (ligado)


Los libros de la buena memoria (Spinetta)

El vino entibia sueños al jadear
Desde su boca de verdeado dulzor
Y entre los libros de la buena memoria
Se queda oyendo como un ciego frente al mar.

Mi voz le llegará
Mi boca también
Tal vez le confiaré
que eras el vestigio del futuro.

Rojas y verdes luces del amor
prestidigitan bajo un halo de rouge
Que sombra extraña te ocultó de mi guiño
que nunca oiste la hojarasca crepitar?

Pues yo te escribiré
Yo te haré llorar
Mi boca besará
toda la ternura de tu acuario.

Más si la luna enrojeciera en sed
O las impalas recorrieran tu estanque
No volverías a triunfar en tu alma?
Yo sé que harías largos viajes por llegar.

Parado estoy aquí
Esperándote
Todo se oscureció
Ya no sé si el mar descansará...

Habrá crecido un tallo en el nogal
La luz habrá tiznado gente sin fe
Esta botella se ha vaciado también
Que ni los sueños se cobijan del rumor.

Licor no vuelvas ya
Deja de reir
No es necesario más
Ya se ven los tigres en la lluvia
Este fichero es trabajo propio de su transcriptor y representa su interpretación personal de la canción. El material contenido en esta página es
para exclusivo uso privado, por lo que se prohibe su reproducción o retransmisión, así como su uso para fines comerciales.

© LaCuerda.net · Aviso Legal · Privacidad