Acordes de Guitarra » I »Invisible » Encadenado al ánima (Tab)

Encadenado al ánima
Invisible

Letras, Acordes y Tabs para Guitarra, Bajo y Ukulele

  • g----------------------------------/
    d----------------------------------/
    a---3---7-4--2-------4-4-3-2-3-----/
    E-0--------------3-0-----------0---/
    
    C#m / A / F / E
    
    
    (00:20)
              C#m      A        F    E
    
     e-.--------4------4--------1----0-------/
     b-.-------5-------4--------1----0-------/
     g-.------6--------6--------2----1-------/     X 2
     d-.-----6---------6--------3----2-------/
     a-.--4------------7--------3----2----3--/
     E----------------4---------1----0-------/
    
    
    g----------------------------------/
    
  • g----------------------------------/
    d----------------------------------/
    a---3---7-4--2-------4-4-3-2-3-----/
    E-0--------------3-0-----------0---/
    
    C#m / A / F / E
    
    
    (00:20)
              C#m      A        F    E
    
     e-.--------4------4--------1----0-------/
     b-.-------5-------4--------1----0-------/
     G-.------6--------6--------2----1-------/     X 2
     d-.-----6---------6--------3----2-------/
     a-.--4------------7--------3----2----3--/
     E----------------4---------1----0-------/
    
    
    g----------------------------------/
    
  • Esta es la primera parte del tema.
    
    Intro:
                                    (3 veces)
    G|-------------6--------------------6--6--5--4--5------------------------|
    D|----------------------------5--2---------------------------------------|
    A|----3-----7--------2-----------------------------2----------4-----2----|
    E|-0-------------------------------------------------------------------5-|
    
    1:04
                     (2 veces)
    G|----------------6-7-------------------------|
    D|-5-5-5---------7----------------7-----------|
    A|----6-5p3--2--7----7--9--9h10---------------|
    E|-----------------------------6--------------|
    
    G|----------------6-7-------------------------|
    D|-5-5-5---------7----------------------------|
    A|----6-5p3--2--7----7--9--9h10---3-----------|
    E|-----------------------------6--------------|
    
                                                   1:32
                                                         (2 veces)
    G|----------------6-7-------------------------|-7----5---4----3-2--|
    D|-5-5-5----
  • +
    ¡Colabora con nosotros!
    Envíanos tu versión de esta canción

Letra de Encadenado al ánima
(00:20)
(00:54)
(01:05)
(Empieza la bata)
(01:34)
(01:56)
Sii.. el viejo portal del cieee-eelo
Sii.. el viejo portal del cieee-eelo
Sii.. el viejo portal del cieee-eelo
Sii.. el viejo portal del cieee-eelo
(02:29)
Puedo enfriar los cuerpos de hoy y ayer..
*
b--15´(17)-/
(todos los acordes se encuentran
en posición de transportables)
Se niega el recuerdo por sano y se quema
| * |
| |
|G(III)|F#(II)|
En las puertas de una ciudad
Que aulla sin ser vista
Serie de aumentadas..
Hay un poco de Chorus y Flanger
Los planetas giran sin saberlo
Así como tu recuerdo vive en ellos
| ||| Como tocar el Bm [VII] ||| |
| |
Sin que puedas correr allí
Sin que puedas correr allí
¡
Las ventiscas en sombras
ahuyentan el humo
De unos muñecos que se queman
en el alba ro-ja
y ardiente de la locura
¡
Pausa
Explosión de
Base:
Base
Las caras que asoman la ventana
Quieren cristalizarse en mi pensamiento
En forma alucinatoria
En forma alucinatoria hhaa..
Base
Como si los muebles pudieran hablarme de ellas
Sin moverse
Base (en 5tas)
|Por si no lo entienden.. básicamente es la pentatónica menor en C|
Base
Como si los muebles pudieran hablarme de ellas
Sin moverse
NO!
Produciendo ruidos incomprensibles
a mi espalda haaaa
|Comienza otra guitarra acustica.. |
|| C(III) | D(IV) | Em(VII) |
La noche despide su manera arrogante
De mecerse donde quiera
Y las ropas de los sirvientes
Caminan por la casa
Arreglo:
*
||Em||
Fin de la primera parte.
Interpretación de la tablatura
s: Slide
h: Hammer on
p: Pull off
b: Bend (Estirar hasta el traste entre parentesis)
x: Muted
PM: Palm Muted
||: Cantidad de PM
(): Nota no obligatoria
X2: Bis
(II): Traste del transportable
~: Vivrato
.: Vivrato leve
!: Intenso




[Encadenado al ánima chords][Encadenado al ánima cifra]
© LaCuerda.net · aviso legal · privacidad · es · en · pt · contacto