Acordes de Guitarra » I »Il Divo » Sólo otra vez (Tab)

Sólo otra vez
Il Divo

Letras, Acordes y Tabs para Guitarra, Bajo y Ukulele

  •  Intro: C...
    
       C
     Quise volar
           F          C
     Y conoci la soledad
      G                      Dm
     Jugue el amor sin entregar
     Fm        C  (F - G)
     Sin esperar
    
            C
     Salgo a buscar
                F           C
     Alguna huella, una senal
     G                    Dm
     Hacer mi sueno realidad
    Fm          C
     Poder amar
    
    
  •  Intro: C
    
    VERSO I:
    
    C
      Quise volar
            Fm         C
      Y conoci la soledad
    Gm          A7             Dm
      Jugue el amor sin entregar
       Fm      C
      Sin esperar
    
      Fm*  G
    
    VERSO II:
    
    C
      Salgo a buscar
              Fm            C
    
  • Dm7b5/C  Gm/Bb  A7sus4   A7   Dm    Fm6  C/E  Dm7b5    G/B   Em7b5/Bb   D7
    ---1-------3------3-----0-----1-----1-----0-----1------3-------3-------2-|
    ---3-------3------3-----2-----3-----3-----1-----1------0-------3-------1-|
    ---1-------3------2-----0-----2-----1-----0-----1------0-------3-------2-|
    ---x-------0------2-----2-----0-----3-----2-----0------0-------2-------0-|
    ---3-------1------0-----0-----------------------x------2-----------------|
    ---x---------------------------------------------------------------------|
    
      Fm/Ab  G7  Ebmaj7   G7/B  G#m7b5/D  F#m7b5/C  F#m7b5/E   Am6
    ----1-----1----3-------1-------2---------5---------5--------2------|
    ----0-----0----3-------0-------0---------5---------5--------1------|
    ----0-----0----3-------0-------1---------5---------5--------2------|
    ----3-----0----5-------0-------0---------4---------3--------2------|
    ----x-----2----6-------2-------x---------3---------2--------0------|
    ----4-----3----x-------x-----------------x---------0---------------|
    
    
    
     C
      Quise volar
    
  • +
    ¡Colabora con nosotros!
    Envíanos tu versión de esta canción

Letra de Sólo otra vez
Quise volar
Y conoci la soledad
Jugue el amor sin entregar
Sin esperar
Salgo a buscar
Alguna huella, una senal
Hacer mi sueno realidad
Poder amar
No se vivir
Sin amor
Quero saber
Como es que siente una mujer
Mi corazon no aguante mas
La soledad
No se vivir
Sin amor
Estoy aqui
Sin amor
Quise volar
Y conoci la soledad
Jugue el amor sin entregar
Sin esperar
No se vivir
Sin amor
No se vivir
Tan solo ya no quiero estar tan solo
sin tu amor
Ya no se vivir
Sin amor, sin amor
Quise volar
Y conoci la soledad
Jugue al amor sin entregar
Sin esperar.
*Cualquier duda o error, avisa x msn xfa...xD




[Sólo otra vez chords][Sólo otra vez cifra]
© LaCuerda.net · aviso legal · privacidad · es · en · pt · contacto