Acordes de Guitarra » H »Horacio Guarany » La Tristecita (Tab)

La Tristecita
Horacio Guarany

  • Letra y Acordes
    LAm    LaDte   LAm
    Sangre del ceibal
    ReDte          REm
    que se vuelve flor
                 LAm
    yo no sé por qué
                 LaDte            LAm (ReDte)
    hoy me hiere más tu señal de amor.
    REm          LAm
    yo no sé por qué
                 LaDte            LAm
    hoy me hiere más tu señal de amor.
    
    
    Zamba quiero oír
    al atardecer
    capullo de luz
    que quiere ser sol y no puede ser.
    
    DoDte        DO 
    
  • Tablatura
      SOLm         SOL7    DOm
    E|------------------------------------
    B|-----------------------3------------
    G|-----2-3------------4-4-5-----------
    D|--5-5---(-5-4-3)---3-3----(5-4-3-)--
    A|-5-5----(5-----)----------(-----6)--
    E|------------------------------------
             RE7            SOLm
    E|-----------------2-2-5-3-------------|
    B|-----4-3--------3-3------------------|
    G|--5-5--------------------------------|
    D|-5-5---------------------------------|
    A|---------(3-4-5)---------(5~3-----)--|
    E|-------------------------(---6-5-3)--|
    
    La tablatura anterior es de la intro y se ejecuta 2 veces,
    entre paréntesis están los arreglos de bajos que los hace otra guitarra
    pero yo los puse asi de forma opcional.
    
    
    
  • +
    ¡Colabora con nosotros!
    Envíanos tu versión de esta canción

Letra de La Tristecita
Sangre del ceibal
que se vuelve flor
yo no sé por qué
hoy me hiere más tu señal de amor.
yo no sé por qué
hoy me hiere más tu señal de amor.
Zamba quiero oír
al atardecer
capullo de luz
que quiere ser sol y no puede ser.
¡Ay! tristecita,
tristecita igual
que llovizna azul
murmurándole al cañaveral.
El viento la trae
se la lleva el sol
sueño en el trigal
y sobre el sauzal lamento de amor.
Ya siento llegar
del cerro su voz
pañuelo ha de ser
y lo he de prender en el corazón.



© LaCuerda.net · aviso legal · privacidad · contacto