Acordes de Guitarra » H »Horacio Guarany » Nada tengo de tí (Tab)

Nada tengo de tí
Horacio Guarany

  • Letra y Acordes
                  Em - E        Am
    Nada tengo de ti y lo tengo todo
                    D             G
    aunque tu no lo sepas eres tan mia
                    B7               Em
    eres mia hace tiempo cuando el otoño
                       C              B7
    no asomaba a las puertas de mis jardines
    
    Te veia pasar como una estrella
    toda llena de luz, pero tan lejos
    y ahora que cerca estas no puedo amarte
    porque tu corazon ya tiene dueño
    
       Em           B7            Em
    Yo se que tu me quieres, alma mia,
       E             E7           Am
    culpable soy de haber llegado tarde
        B7                        Em
    y ahora que te mueres con mi muerte
    
  • Letra y Acordes
    LA            RE
    Nada tengo de ti y lo tengo todo
                    SOL             DO
    aunque tu no lo sepas eres tan mia
                    MI              LA
    eres mia hace tiempo cuando el otoño
                       FA              MI
    no asomaba a las puertas de mis jardines
    
    Te veia pasar como una estrella
    toda llena de luz, pero tan lejos
    y ahora que cerca estas no puedo amarte
    porque tu corazon ya tiene dueño
    
                      MI           LA
    Yo se que tu me quieres, alma mia,
       DOm-RE                      RE
    culpable soy de haber llegado tarde
        MI                        LA
    y ahora que te mueres con mi muerte
    
  • Tablatura
    Bueno esta es mi primera trancripción y es únicamente la intro de la cancion,
    espero les guste:
    
    
    
    e|------12-10--8-7--7-8-7-------7------10-8--7-5--5-----------5------|
    B|------------------8-----10-8--8-----------------6--6-5------6------|
    G|---9--------------9-----------9----7------------7------8-7--7------|
    D|------------------9-----------9-----------------7-----------7------|
    A|------------------7-----------7-----------------5-----------5------|
    E|-------------------------------------------------------------------|
    
    
    
    e|------8-6-5----5------10-8--7-----7--------------------|
    B|------------8--6--------------10--8---5--6--5-----5----|
    G|---5-----------7---7--------------9------------8-------|
    D|---------------7------------------9--------------------|
    A|---------------5------------------7--------------------|
    E|-------------------------------------------------------|
  • +
    ¡Colabora con nosotros!
    Envíanos tu versión de esta canción

Letra de Nada tengo de tí
Nada tengo de ti y lo tengo todo
aunque tu no lo sepas eres tan mia
eres mia hace tiempo cuando el otoño
no asomaba a las puertas de mis jardines
Te veia pasar como una estrella
toda llena de luz, pero tan lejos
y ahora que cerca estas no puedo amarte
porque tu corazon ya tiene dueño
Yo se que tu me quieres, alma mia,
culpable soy de haber llegado tarde
y ahora que te mueres con mi muerte
pregunto que es la vida sin tenerte...
(recitado)
Que sabran del amor los que te tienen...
amar fue mi callar por tanto tiempo,
amar...fue mi sufrir siempre en silencio,
y aun hoy es el morir cuando te pienso.
Juguemos al amor que ya es muy tarde
para hacer del amor toda una vida
juguemos al amor y en una noche
tratemos de curar tantas heridas
Yo se que aunque lo niegues tambien sufres
la rosa no es feliz entre las piedras
tus ojos y tu voz deshecha en llanto
preguntanme porque tardaste tanto
Amor, ...nada tengo de ti..., nada tengo de ti...
...Nada...



© LaCuerda.net · aviso legal · privacidad · contacto