Tablatura para Guitarra de Hombres G: Te Necesito
Conexión · Inscripción
Letras y Acordes
Pantalla Completa
Imprimir
Versión Texto
Añadir Favorito
Otras Versiones

Mostrar Diagramas
Desfile Automático
Manipular Acordes
Formato del Texto


Te Necesito(TAB)

Hombres G

calidad:
homg0503
AUTOR: David Summers
ALBUM: Voy a Pasármelo Bien (1987)
Enviado por Diego
E-10/12-10--------------------------------------------------7----7-
B----------12/13-12--10------8------------------8-10--8-------10---
G-----------------------12-9---9-7-------7-9-10---------9-7--------
D----------------------------------10-10---------------------------
A------------------------------------------------------------------
E------------------------------------------------------------------


este es el rekinto que se oie en la cancion como en el minuto 2:21
esta bn facil...tratare de sacar mas.....
saludos desde monterrey....hasta españa



VERSION DE Raul Velarde (raulvelarde@usa.net)
**********************************************************************

e-10/12-10-8-7-----------------------7----------------------
B--------------8/10-8-7-8-----7-8-10---8/10-8---10/12-10-8--
G-------------------------7-9-----------------9-------------
D-----------------------------------------------------------
A-----------------------------------------------------------
E-----------------------------------------------------------
Este fichero es trabajo propio de su transcriptor y representa su interpretación personal de la canción. El material contenido en esta página es
para exclusivo uso privado, por lo que se prohibe su reproducción o retransmisión, así como su uso para fines comerciales.

© LaCuerda.net · Aviso Legal · Privacidad