Tablatura para Guitarra de Hombres G: Suéltate el pelo
Conexión · Inscripción
Letras y Acordes
Pantalla Completa
Imprimir
Versión Texto
Añadir Favorito
Otras Versiones

Mostrar Diagramas
Desfile Automático
Manipular Acordes
Formato del Texto


Suéltate el pelo(TAB)

Hombres G

calidad:
homg0472
AUTOR: David Summers
ALBUM: Agitar Antes de Usar
Enviado por Cesar
Que tal, ahora les mando el intro de sueltate el pelo, 
armonizada en MI mayor en el ritmo de Blues.
Espero que les guste esta 99% correcro.


INTRO:

E|-----------------------------------------------
B|-----------------------------------------------
G|-----------------------------------------------
D|--9--11--9--11--9--11--9--11--9--11--9--11--9--
A|--7--7---7--7---7--7---7--7---7--7---7--7---7--
E|-----------------------------------------------


E|-----------------------------------------12-12-15-12b---
B|----------------15-15-15-15-15-15-15-15-----------------
G|--------13-13-------------------------------------------
D|--12/14-------------------------------------------------
A|--------------------------------------------------------
E|--------------------------------------------------------


E|-------------------10-12b-12br-12b-12br-10-----------------------
B|-----------------------------------------------------------------
G|------------------------------------------------------------------
D|-----------------------------------------------------------------
A|--7-7-7--9-9-9---------------------------------------------------
E|--5-5-5--7-7-7---------------------------------------------------



E|-12b-12br-12-10-------------------------------------------
B|----------------------------------------------------------
G|----------------------------------------------------------
D|--------------------14-16p14--16p-14---16-18-16-----------
A|--------------------12-12-----12-------14-14-14-----------
E|----------------------------------------------------------



Eso es todo el intro, espero que les sirva, y saludos a ACAPULCO¡
Este fichero es trabajo propio de su transcriptor y representa su interpretación personal de la canción. El material contenido en esta página es
para exclusivo uso privado, por lo que se prohibe su reproducción o retransmisión, así como su uso para fines comerciales.

© LaCuerda.net · Aviso Legal · Privacidad