Acordes de Guitarra » H »Himnos Nacionales » Himno Nacional Argentino (Tab)

Himno Nacional Argentino
Himnos Nacionales

Letras, Acordes y Tabs para Guitarra, Bajo y Ukulele

  • Intro: C - E - C - G
    
    G7    C       A/C#
    D7    Dm7     G         C
    G7    C       G
    G7    C       G
    G7    Em/G    Ebm/Gb    Dm/F
    C     G
    C     G
    C     F       G         C
    G     C       G         C
    
    ----------------------------------
    
    *Em/G   (sin tocar la nota SI)
    *Ebm/Gb (sin tocar la nota SIb)
    *Dm/F   (sin tocar la nota LA)
    
    ----------------------------------
    
    
  • 1|--------3--------------------|
    2|---5-------6-3-----------3---|
    3|-5---5---------4-4-4-4-4---5-|
    4|-----------------------------|
    5|-----------------------------|
    6|-----------------------------|
    
    |---5-3-2-1---3----------------------------0-1-3-1-----0-3-1-----|
    |---5-------3---5--6-5-3--6-5-3------0-1-3---------3-3-------3-3-|
    |-5--------------5--------0-0-0--0-2-----------------------------|
    |----------------------------------------------------------------|
    |----------------------------------------------------------------|
    |----------------------------------------------------------------|
    
    1|-0-3-2-1-|
    2|---------|
    3|---------|
    4|---------|
    5|---------|
    6|---------|
    
    |-0------------0----------------3-1-00000000__---3-1-00000000__---5-3-11111111__-----|
    |---3-11111111__---3-1111111__-------------------------------------------------------|
    |------------------------------------------------------------------------------------|
    |---------------------------------
  • Himno Nacional Argentino
    En “A”
    
    
    e-------0-------------------------2-0-------0----------------
    B---2---0-3-0-------------------2-2---4-3-0---2---------3-2--
    G-2---2-1-----1-1-1-1-1-2-4-2-----------------2-4-2-1/2/4-2--
    D-------2-------0-0-0-0---------------4----------------------
    A—0-4-0-2-------2-2-2-2-----0-0---0---2-------0-----------0--
    E-------0-----0-0-0-0-0-------------2-----4-------------0----
    
    e---------------------------0-0---------0--------------------
    B-0-3-3-2-2-0---------0-2-3---0-3-0-0-2-0-3-0-0-2/5-4-3-2/0--
    G-1-4-4-2-2-1-----1-2---------1---------1---------6-5-4-----2
    D-2---------2-2-4--------------------------------------------
    A-------0-----------------------------------------7-6-5-0----
    E---0-------------------------0---------0---------0----------
    
    e-------------------------0-0--------------------------------
    B---------------------2-2-2-2-2-2-3/2-0-0-0-0-0-0-0-0-0-0-0--
    G-2-2-2-2-2-2-2-2-2-2-2-2-----2---------2--------------------
    D-------2----------------------
  • PARTE CANTADA
    
    1|-------------------0-----------------------------------------------
    2|------0---1---1.------3___1--0-------------------------------------
    3|-0-2---------------------------2--0------------0------------2---0--
    4|-------------------------------------2-----2.------3----3.---------
    5|---------------------------------------3---------------------------
    6|-------------------------------------------------------------------
       O_ID MOR_TA__LES EL GRI____TO SA_GRA__DO:¡LI_BER_TAD! ¡LI_BER_TAD!
    
    
    1|--------------------------------------------------------------------
    2|-----0---1------------------------------------------------------1___
    3|-2.------------------------------------2--2---0----0.-4---2.-2------
    4|-------------------0--2---2-2-2_5--4.-------------------------------
    5|--------------3--3--------------------------------------------------
    6|--------------------------------------------------------------------
      ¡LI_BER_TAD! ¡O_ID EL RUI_DO DE RO_TAS CA_DE_NAS! VED EN TRO_
  • e-------0------------------------2-0-------0--------------
    B---2---0-3/0------------------2-2---4-3-0---2-------3-2--
    G-2---2-1-----1-1-1-1--2-4-2-----------------2-4-2-1-4-2--
    D-------2-----0-0-0-0----------------4--------------------
    A-0-4-0-2-0---2-2-2-2------0-0---0---2-0-----0---------0--
    E-------0-----0-0-0-0--------------2-----4-----------0----
    
    e---------------------------0-0---------0--------------------
    B-0-3-3-2-2-0---------0-2-3---0-3-0-0-2-0-3-0-0-2/5-4-3-2/0--
    G-1-4-4-2-2-1-----1-2---------1---------1---------6-5-4-----2
    D-2---------2-2-4--------------------------------------------
    A-------0-----------------------------------------7-6-5-0---0
    E---0-------------------------0---------0---------0----------
    
    e-------------------------0-0-------------------------------
    B---------------------2-2-2-2-2/3/2-0-0-0-0-0-0-0-0-0-0-0-0-
    G-2-2-2-2-2-2-2-2-2-2-2-2-----------------------------------
    D-----------------------------------------------------------
    A-0-0-0-0-0-0-0-0-0-0---------------2-2-2-2-2-2-2-2-2-2-2-2-
    E-------------------------------0---------------------------
    
  • |---------|--------|----------|----------|----2-0--|
    |----2----|-5---3-0|----------|----------|--2------|
    |-2-----2-|--------|-1--1-1-1-|-1--2-4-2-|---------|
    |---------|--------|----------|----------|---------|
    |---------|--------|----------|----------|---------|
    |---------|--------|----------|----------|---------|
    
    |---------|---------|-----10-9-|
    |-4-3-0-5-|-2---3-2-|-0--------|
    |---------|---2-----|----------|
    |---------|---------|----------|
    |---------|---------|----------|
    |---------|---------|----------|
    
    |-7-----------------0-|-0---------0----------|-0-----
    |-------------0-2-3---|---3-0-0-2----3-0-0-2-|----4-3
    |---------1-2---------|----------------------|-------
    |-----2-4-------------|----------------------|-------
    |---------------------|----------------------|-------
    |---------------------|----------------------|-------
    
  • Aca les paso mi mas humilde transcripcion del Himno Nacional Argentino.
    Cualquier duda escribanme.
    
    
    e|----------|-----------|--------------|-----9--------------|
    b|---9---12-|-9-10------|--------------|---9---12-10--------|
    g|-9---9----|------11-8-|-8-8-8-9-11-9-|-------------11-----|
    D|----------|-----------|--------------|--------------------|
    A|----------|-----------|--------------|--------------------|
    E|----------|-----------|--------------|-0------------------|
    
    
    e|---------------------------|---------------------------------|
    b|-12-10-9---10-9----10-9----|-------------9-10-12-10----------|
    g|---------9------11------11-|------8-9-11------------11-11-11-|
    D|---------------------------|-9-11----------------------------|
    A|---------------------------|---------------------------------|
    E|---------------------------|---------------------------------|
    
    
    e|-----------------------------------|----------------------|
    b|-9/10-12-10----------9/10-12-11-10-|-9--------------------|
    g|-------
  • Este es una version que tabulé del Himno Nacional Argentino,
    para Bajo electrico. Está en LA, creo que la que se toca generalmente
    es en SOL. Cualquier cosa mandenme un mail
    
    g|----------------------------------11--9--8-7---9--7-6--|
    d|------2--0---------------------11------------9--------7|
    a|0-4-0------2----------2--0--0--------------------------|
    E|-------------4---4--4-------0--------------------------|
    
    g|--------------------------------7-9-7--------9-7-------9-7------9-8-7|
    d|12-11-9/--12-11-9/--------7-9-11------9-9-11----9-9-11----9-9h11-----|
    a|12-12-12/-12-12-12/-7-9-11-------------------------------------------|
    E|---------------------------------------------------------------------|
    
    (parte movidita)
    
    g|------------------------------------------------------------------|
    d|------------------------------------------------------------------|
    a|4-2-00000000-777-444-0--4-4--7-7--4-4--5-3-222222222-2-2--5-5--2-2|
    E|---------------------------------------------------------------
  • Nota soplada x
    Nota aspirada (x)
    
    
     4 5 4 6 (5) (4) (3) (3) (3) (3) 4 (4) 4 3 2
    
     5 (6) 6 (5) 5 (4) 6 (5) 5 4 - (5) 5 (4) - (5) 5 4
    
     3 4 (4) 5 (5) 6 6 (5) (4) - (4) 5 6 (5) (4) - (4) 5 6 (5) (4)
    
     5 4 4 4 4 4 4 4 4 4 ( rapido )
    
     5 5 6 6 5 5 (5) (4) (4) (4) (4) (4) (4) (4) (4) (4) ( rapido )
    
     (4) (4) (5) (5) (4) (4) 5 4 4 4 4 4 - 5 4 4 4 4 4 - ( rapido )
    
     (5) (4) (4) (4) (4) (4) ( rapido ) -
    
     (5) (4) (4) (4) (4) (4) ( rapido ) -
    
     6 5 5 5 5 5 5 ( rapido ) -
    
     6 5 5 5 5 5 - ( rapido )
    
     (6) (5) (5) (5) (5) (5) - ( rapido )
    
     (6) (5) (5) (5) (5) (5) - ( rapido )
    
     7 - 4 5 6 6 - 6 5 5 4 - 5 4 5 4 5 4 - 4 - 4 4
    
    
    un saludo  a tito, marcu, sergio, teto medina, lucho,
    juan pablo, marquitos q tuvo un sobrinito, merca, urca,
    dicepolo, merenge, lucho, franccescoli, juanca, tere,
    gaston, a la mina de nivel x, a hugo, mica, salas,
    araujo, menoti, tripodi, maradona, higuita, fran aloi,
    nacho, a pollu, juan cruz, maria marta, hugo,
    willy de cantina, piriz, p
  • +
    ¡Colabora con nosotros!
    Envíanos tu versión de esta canción

Letra de Himno Nacional Argentino
*Em/G (sin tocar la nota SI)
*Ebm/Gb (sin tocar la nota SIb)
*Dm/F (sin tocar la nota LA)
Oíd, mortales, el grito sagrado:
¡libertad, libertad, libertad!
Oíd el ruido de rotas cadenas,
ved en trono a la noble igualdad.
Ya su trono dignísimo abrieron
las provin-cias uni-das del sud,
y los libres del mundo responden:
al gran pueblo argentino salud,
al gran pueblo argentino salud.
Y los libres del mundo responden:
al gran pueblo argentino salud.
Y los libres del mundo responden:
al gran pueblo argentino salud.
SEAN ETERNOS LOS LAURELES
QUE SUPIMOS CONSEGUIR,
QUE SUPIMOS CONSEGUIR...
CORONADOS DE GLORIA VIVA-AAAA-AMOS,
O JUREMOS CON GLORIA MORIR.
O JUREMOS CON GLORIA MORIR.
O JUREMOS CON GLORIA MORIR.
Créditos: http://www.youtube.com/watch?v=rbqFkBKaryo
XX
|||||| 1
|||||O
|||O||
||O|O|
XX
|||||O 1
|||O||
||O|O|
||||||




[Himno Nacional Argentino chords][Himno Nacional Argentino cifra]
© LaCuerda.net · aviso legal · privacidad · es · en · pt · contacto