Acordes de Guitarra » H »Himnos de Gloria y Triunfo » Todas las promesas del Señor Jesús (Tab)

Todas las promesas del Señor Jesús
Himnos de Gloria y Triunfo

Letras, Acordes y Tabs para Guitarra, Bajo y Ukulele

  • e/--------------------3-3-
    B/--3-3-3-5-3-------3-----
    G/------------5-4-5-------
    D/------------------------
    A/------------------------
    E/------------------------
    
    e/------------------------
    B/-5-5-5-7-8-8-7-5-5-3-3--
    G/------------------------
    D/------------------------
    A/------------------------
    E/------------------------
    
    e/--------------------3-3-
    B/--3-3-3-5-3-------3-----
    G/------------5-4-5-------
    D/------------------------
    A/------------------------
    E/------------------------
    
  • +
    ¡Colabora con nosotros!
    Envíanos tu versión de esta canción
  • Tutorial
    Todas las promesas del Señor Jesús Tutorial con guitarra- Acordes faciles!!
    7:28

Letra de Todas las promesas del Señor Jesús
Espero que les sea de bendición y la usen para alabar al Señor Jesús.
Dios les bendiga!




[Todas las promesas del Señor Jesús chords][Todas las promesas del Señor Jesús cifra]
© LaCuerda.net · aviso legal · privacidad · es · en · pt · contacto