Acordes de Guitarra » H »Los Hijos de Barrón » Cortinas Guindas (Tab)

Cortinas Guindas
Los Hijos de Barrón

Letras, Acordes y Tabs para Guitarra, Bajo y Ukulele

  • DO         MIm    SOL
    Que estarás asiendo
    FA              SOL         DO
    tal vez ya estas dormida
                           SOL
    o estas despintandote
                               FA-FAm  DO
    o decorando tus uuuuuuuuñas
    
    
    DO                    MIm          SOL
    hoy estoy de amigo con la luna
        FA       SOL                 DO
    la verdad no atrapo el sueño
                              SOL
    me siento algo grave
                                 FA-FAm DO
    pero tambien conteeeeeeento
    
    
    
  • DO    MIm
    Que estarás asiendo
    FA                DO
    tal vez ya estas dormida
              SOL
    o estas despintandonte
                 FA   MIm
    o decorando tus uñas
    
    DO        MIm
    hoy estoy de amigo con la luna
    FA                   DO
    la verdad no atrapo el sueño
              SOL
    me siento algo grave
                FA    MIm
    pero tambien contento
    
    FA
    dime que me quieres
    
  • C    Em     G7
    Que estarás asiendo
    F              C
    tal vez ya estas dormida
              G7
    o estas despintando
           F  Fm     C
    o decorando tus uñas
    
    C            Em            G7
    hoy estoy de amigo con la luna
    F                      C
    la verdad no atrapo el sueño
              G7
    me siento algo grave
           F   Fm     C
    pero también contento
    
    F
    dime que me quieres
    
  • E|--12-----12--12--12-----7-----7--7--7--10-----10--10--10--
    B|--13-----13--13--13-----8-----8--8--8--12-----12--12--12--
    G|----------------------------------------------------------
    D|----------------------------------------------------------
    A|----------------------------------------------------------
    E|----------------------------------------------------------
    
    E|--10--12-----12--12-----12--12--12--17--17--15--
    B|--12--13-----13--13-----13--13--13--18--18--17--
    G|------------------------------------------------
    D|------------------------------------------------
    A|------------------------------------------------
    E|------------------------------------------------
    
    E|--15--17-----15--17--15--13--
    B|--17--18-----17--18--17--15--
    G|-----------------------------
    D|-----------------------------
    A|-----------------------------
    E|-----------------------------
    
  • +
    ¡Colabora con nosotros!
    Envíanos tu versión de esta canción

Letra de Cortinas Guindas
Que estarás asiendo
tal vez ya estas dormida
o estas despintandote
o decorando tus uuuuuuuuñas
hoy estoy de amigo con la luna
la verdad no atrapo el sueño
me siento algo grave
pero tambien conteeeeeeento
dime que me quieres
tu dime que me amas
diiiiiiiiiimelo por favor
dime que me quieres
dime que me extrañas
diiiiiiimelo corazón
las cortinas de aquel cuarto eran guindas
tu tierna piel es trigueña
yo cuando te miro
mis ojos me briiiiiiiiiiiiiiiillan
ohhhh cortinas guindas
las que estuvieron presentes
en aquella noche
de cariseas
ohhhh cortinas guindas
las que estuvieron presentes
en aquella nocheeee
de cariseas ooohh [Requinto]




[Cortinas Guindas chords][Cortinas Guindas cifra]
© LaCuerda.net · aviso legal · privacidad · es · en · pt · contacto