Acordes de Guitarra » H »Los Higuereños » Medias Negras (Tab)

Medias Negras
Los Higuereños

Letras, Acordes y Tabs para Guitarra, Bajo y Ukulele

  • F                    C7                     F
    lo primero que mire,nomas al cruzar las puerta
       F7                                            Bb
    aquel hermoso par de piernas,cubiertas con medias negras
    C7                                             F
    desde el banco de la barra,lanzaba miradas tiernas
            C7                                    F
    prometiendo con sus ojos,noches de pasion eternas
    
    F                     C7                 F
    era una mujer extraña,se veia cara su ropa
      F7                                           Bb
    me acerque y le dije hola,puedo invitarte una copa
       C7                                    F
    ella dijo al cantinero,un champaña por favor
            C7                                     F  F7
    y yo dije a mi un telquila,pero que sea del mejor
    
    C7                                                F
    ella llebaba medias negras,de eso bien me acuerdo yo
    
  • Bueno aquí les dejo la tablatura de las
    Medias negras espero y les guste…
    Inténtala no esta difícil...
    
    Mas información a mí MSN   carlos_sin_mex@hotmail.com
    
    6.-----------------------------------------
    5.-----------------------------------------
    4.-----------------------------------------
    3.-----------------------------------------
    2.-1-3-5-3-1-3-5-3-1-3-5-3-0---------------
    1.-0-1-3-1-0-1-3-1-0-1-3-1-1---------------
    
    6.-----------------------------------------
    5.-----------------------------------------
    4.-----3-----------------3---3---3---------
    3.-3-2---0-2-0-2-0-3-0-0---0---0---0-2-----
    2.-----------------------------------------
    1.-----------------------------------------
    
    Esto es la primera parte del requinto...
     A continuación sigue donde baja la escala...
    
    6.-----------------------------------------
    5.-----------------------------------------
    4.-----------------------------------------
    3.-----------------------------------------
    2.-13-15-17-15-13-15-17-15-13-15-17-15-1
  • e-2--3--5--3--2--3--5--3--2--3--5--3--2--
    B-3--5--7--5--3--5--7--5--3--5--7--5--3--
    G----------------------------------------
    D----------------------------------------
    A----------------------------------------
    E----------------------------------------
    
    e----------------------------------------
    B----------------------------------------
    G--2--3-----0-2-0-2-0-3-0---0-2-0---0-3--
    D---------3---------------3-------3------
    A----------------------------------------
    E----------------------------------------
    
    e--12--13--15--13--12--13--15--13--12--13--15-13--15-----
    B--13--15--17--15--13--15--17--15--13--15--17-15--17-----
    G--------------------------------------------------------
    D--------------------------------------------------------
    A--------------------------------------------------------
    E--------------------------------------------------------
    
  • +
    ¡Colabora con nosotros!
    Envíanos tu versión de esta canción

Letra de Medias Negras
lo primero que mire,nomas al cruzar las puerta
aquel hermoso par de piernas,cubiertas con medias negras
desde el banco de la barra,lanzaba miradas tiernas
prometiendo con sus ojos,noches de pasion eternas
era una mujer extraña,se veia cara su ropa
me acerque y le dije hola,puedo invitarte una copa
ella dijo al cantinero,un champaña por favor
y yo dije a mi un telquila,pero que sea del mejor
ella llebaba medias negras,de eso bien me acuerdo yo
cuando le dije bailamos,dijo claro porque no
su cuerpo pegado al mio,la sangre me alvoroto
y despues de dos canciones,en la boca me beso
alla en un hotel de paso,las negras medias volaron
tambien volaron mis ancias,y en su cuerpo aterrizaron
en sublime comunion,nuestros cuerpos se juntaron
quisimos amarnos mas,pero las fuerzas nos faltaron
desperte como a las nueve,no se a que hora se marcho
la he buscado en aquel bar,pero ella nunca volvio
me dejo sus medias negras,pero mi alma se llebo

Video de Medias Negras
[]




[Medias Negras chords][Medias Negras cifra]
© LaCuerda.net · aviso legal · privacidad · es · en · pt · contacto