Acordes de Guitarra » H »Hermética » La revancha de america (Tab)

La revancha de america
Hermética

Letras, Acordes y Tabs para Guitarra, Bajo y Ukulele

  • Intro: 
    
    B5 (de fondo)
    
    ===============NOTA===================
    Me parece que este riff lo hace el bajo
    si lo hecen con la viola criolla safa
    =======================================
    
    e|--------------------+------------------------||
    B|--------------------+------------------------||
    G|--------------------+------------------------||
    D|--------------------+------------------------||x2
    A|--9--7--5-----------+--9--7---11--9--7h9--9--||
    E|-----------9--7--5--+------------------------||
    
    Riff1 (Atento con los PM, me parece que son 2)
    e|----------------------------------------------------------------------||
    B|----------------------------------------------------------------------||
    G|----------------------------------------------------------------------||
    D|----------------------------------------------------------------------||
    A|--9--9--9--9--9--7--7--7--7--7--9--9--9--9--9--7--7--7--7--7--5--7--5-||
    E|--7--7--7--7--7--5--5--5--5--5--7--7--7--7--7--5--5--5--5--5--3--4--3
  • SEPAN DISCULPAR POR LA VERSION ANTERIOR
    
    
    e|--------------------------------------|
    b|--------------------------------------|x2
    g|--------------------------------------|
    d|---------------------------4----------|
    a|-2--7-5-------------2--7-5---4-4-5-7--|
    E|-0------7-5--3-2-0--0-----------------|
    
    Riff 1:
    e|-------------------------------------------------------|
    b|-------------------------------------------------------|
    g|-------------------------------------------------------|
    d|-9-9-9---------9-9-9---------9-9-9---------7-4-7-------|
    a|-7-7-7--9-9-9--7-7-7--9-9-9--7-7-7--9-9-9--5-2-5-7-5-4-|
    E|--x-x---7x7x7---x-x---7x7x7---x-x---7x7x7--------5-3-2-|
    
    Riff 2:
    e|----------------------------------------------|
    b|----------------------------------------------|
    g|----------------------------------------------|
    d|-9-7-9-7-9-------------9-7-9-7-12-------------|
    a|-7-5-7-5-7--9-7-9-7-5--7-5-7-5-10--9-7-9-7-5--|
    E|------------7-5-7-5-3--------------7-5-7-5-3--|
    
    Riff 
  • AGUANTE HERMETICA CARAJO!!!!
    
    g|--------------------------------------|
    d|---------------------------4----------|
    a|----7-5----------------7-5---4-4-5-7--|
    E|--------7-5--3-2-0--------------------|
    
    Riff 1:
    g|-------------------------------------------------------|
    d|-------------------------------------------------------|
    a|-7-7-7---------7-7-7---------7-7-7---------5-2-5-------|
    E|--------7-7-7---------7-7-7---------7-7-7--------5-3-2-|
    
    Riff 2:
    g|----------------------------------------------|
    d|----------------------------------------------|
    a|-7-5-7-5-7-------------7-5-7-5-10-------------|
    E|------------7-5-7-5-3--------------7-5-7-5-3--|
    
    Riff 3:
    g|---------------------|
    d|---------------------|
    a|-----------5-5--7-7--|
    E|-3-3-3-3-3-----------|
    
    Riff 4:
    g|----------------------------------------------|
    d|----------------------------------------------|
    a|--2-2-2-2-2-2------5-5---2-2-2-2-2-2-5-5------|
    E|--------------5-5------------------------5-5--|
    
  • +
    ¡Colabora con nosotros!
    Envíanos tu versión de esta canción






[La revancha de america chords][La revancha de america cifra]
© LaCuerda.net · aviso legal · privacidad · es · en · pt · contacto