Acordes de Guitarra » H »los Hermanos Carrion » Creo Estar Soñando (Tab)

Creo Estar Soñando
los Hermanos Carrion

Letras, Acordes y Tabs para Guitarra, Bajo y Ukulele

  •   G       Em  C
    Siempre soñe
                D7
    que tu vendrias a mi,
      G          Em  C
    hoy que es asi
               D7
    me siento tan feliz,
                 Em
    creo estar soñando 
       C          D7      G  Em   C  D7
    cuando tu me besas asi
    
    
    G         Em  C
    Todo mi amor 
               D7
    lo tienes tu mi bien,
      G    Em  C
    mi corazon
    
  • e-------------------------------2-
    B-----------------------------1---
    G---------------------0-----2-----
    D-----5-------2-----2---2-0-------
    A---5---5---2---2-3---------------
    E-3-------0-----------------------
    
    
    G  Em  C  D7
    
    
     G        Em  C
    Siempre soñe
               D7
    que tu vendrias a mi,
     G          Em  C
    hoy que es asi
               D7        G
    me siento tan feliz,
                 Em
    
  •          G                Em               Am              D7
     6|------3-----------|--------0-------|--------0------|-------0----------|
     5|--------2---------|-------2--------|-----0---------|--------0---------|
     4|-----0------------|-----2----------|------2--------|-----0------------|
     3|---------0--------|--------0-------|-------2-------|-------2----------|
     2|------------0-----|----------0-----|----1----------|----1-------------|
     1|------3-----------|------0---------|---------0-----|---------2--------|
    
     DESPUES SE TIENE QUE HACER UN RASGUEO(SI PUEDES, ESCUCHA PRIMERO LA ROLA
     PARA QUE LA PUEDAS SACAR MAS FACIL.)
    
        G        Em   Am
       Siempre soñé
    
                 D7
       que tu vendrias a mi
    
          G         Em   Am
       y hoy que es asi
    
    
  • +
    ¡Colabora con nosotros!
    Envíanos tu versión de esta canción

Letra de Creo Estar Soñando
Siempre soñe
que tu vendrias a mi,
hoy que es asi
me siento tan feliz,
creo estar soñando
cuando tu me besas asi
Todo mi amor
lo tienes tu mi bien,
mi corazon
lo tienes tu tambien
creo estar soñando
cuando tu me besas asi
Si te miro bien
no me puedo contener yo ya mas
si te beso asi, pero tambien
tengo miedo de perder tu amor,
Oh! mi amor no me dejes
Se repite la primera parte.
Una cancion romantica de los 60's!




[Creo Estar Soñando chords][Creo Estar Soñando cifra]
© LaCuerda.net · aviso legal · privacidad · es · en · pt · contacto