Acordes de Guitarra » H »Hereford » 1992 (Tab)

1992
Hereford

Letras, Acordes y Tabs para Guitarra, Bajo y Ukulele

  • Las guitarras están afinadas en G (dBGDGE), en el solo no.
    
    d|------------------------------------------------------------------|
    B|----------------------------------------3-------------------------|
    G|-3-3-3-3-----3-3-3-3-----3-----3/4--2/4---4/2-O---O-------------O-|
    D|-2-2-2-2-----2-2-2-2-----2-----2/3--------------2-Oh2h3p2pO-----O-|
    G|-O-O-O-O--O--O-O-O-O--O--O--O--O----------------------------2/4---|
    E|------------------------------------------------------------------|
    
    d|------------------------------------3------3------3---------------|
    B|------------------------------------3------3------3---------------|
    G|-3-3-3-3-----3-3-3-3-----3-----3/4----5(7)---5(7)-----------------|
    D|-2-2-2-2-----2-2-2-2-----2-----2/3--------------------------------|
    G|-O-O-O-O--O--O-O-O-O--O--O--O--O----------------------------------|
    E|------------------------------------------------------------------|
    
    d|------------------------------------------------------------------|
    B|--------
  • +
    ¡Colabora con nosotros!
    Envíanos tu versión de esta canción






[1992 chords][1992 cifra]
© LaCuerda.net · aviso legal · privacidad · es · en · pt · contacto
DINAMICO