Acordes de Guitarra » H »Ha.ash » De donde sacas eso (Tab)

De donde sacas eso
Ha.ash

Letras, Acordes y Tabs para Guitarra, Bajo y Ukulele

  • F - C - Dm - C
    
    F
    No porque le pregunte a tus amigos como estás
       Dm
    ni vaya todo el tiempo a los lugares
                       Bb
    donde creo que vas a estar,
            Gm            C
    no por eso creas que aun te quiero.
         F
    No porque paso el día revisando el celular,
      Dm
    y vivo convencida que en cualquier minuto
               Bb
    tu me vas a llamar,
           Gm           C
    no por eso creas que me tienes.
    Dm            Am
    no vayas a pensar,
    
  • F
    No porque le pregunte a tus amigos como estás,
        Dm
    Ni vaya todo el tiempo a los lugares
                    C
    Donde creo que vas a estar,
         A#
    No por eso creas que aún te quiero.
    
        F
    No porque paso el día revisando el celular,
       Dm
    Y vivo convencida que en cualquier minuto
            C
    Tú me vas a llamar,
         A#
    No por eso creas que me tienes.
    
    PRE-CORO:
    Dm            Am
    
  • E
    e|-4-----4--------4-----4------|
    b|----5-----5--------5-----5---|
    g|-------------4-------------4-|
    d|-----------------------------|
    a|-----------------------------|
    E|-----------------------------|
    
    B
    e|-2-----2--------2-----2------|
    b|----4-----4--------4----4----|
    g|-------------4-------------4-|
    d|-----------------------------|
    a|-----------------------------|
    E|-----------------------------|
    
    C#m
    e|-------------------------------|
    b|-5-----5--------5-----5--------|
    g|----6-----6--------6-----6-----|
    
  • F
    e|-5-----5------5----5----5----|
    b|----6-----6-----6----6----6--|
    g|-----------------------------|
    d|-----------------------------|
    a|-----------------------------|
    E|-----------------------------|
    
    C
    e|-----------------------------|
    b|----8-----8----8---8----8----|
    g|-------9----9----9---9----9--|
    d|-----------------------------|
    a|-----------------------------|
    E|-----------------------------|
    
    Bb
    e|------------------------------|
    b|-6---6---6---6---6------------|
    g|---7---7---7--7----7----------|
    
  • +
    ¡Colabora con nosotros!
    Envíanos tu versión de esta canción

Letra de De donde sacas eso
No porque le pregunte a tus amigos como estás
ni vaya todo el tiempo a los lugares
donde creo que vas a estar,
no por eso creas que aun te quiero.
No porque paso el día revisando el celular,
y vivo convencida que en cualquier minuto
tu me vas a llamar,
no por eso creas que me tienes.
no vayas a pensar,
que te sueño a diario, que te extraño tanto.
te amé demasiado, pero ya es pasado.
Aunque si te hace sentir mejor pensar
que aun me muero por ti, pues sigue así.
A mi ya me das igual, total que mas me da,
si eso aumenta tu ego, sigue creyéndolo.
Si te hace sentir mejor soñar
que vamos a regresar, y no te dejo de amar.
sigue creyendo en tu cuento,
aunque la verdad, no se de donde sacas eso.
Seguro estas con ella,
y que no te duele cuando me ves pasar,
ya estas grande para esos juegos.
no vayas a pensar,
que te sueño a diario, que te extraño tanto.
te ame demasiado, pero ya es pasado.
Aunque si te hace sentir mejor pensar
que aun me muero por ti, pues sigue así.
A mi ya me das igual, total que mas me da,
si eso aumenta tu ego, sigue creyéndolo.
Si te hace sentir mejor soñar
que vamos a regresar, y no te dejo de amar.
sigue creyendo en tu cuento,
de donde sacas eso.
no vayas a pensar,
que te sueño a diario, que te extraño tanto.
te ame demasiado, pero ya es pasado.
Aunque si te hace sentir mejor pensar
que aun me muero por ti, pues sigue así.
A mi ya me das igual, total que mas me da,
si eso aumenta tu ego, sigue creyéndolo.
Si te hace sentir mejor soñar
que vamos a regresar, y no te dejo de amar.
sigue creyendo en tu cuento,
aunque la verdad, no se de donde sacas eso.




[De donde sacas eso chords][De donde sacas eso cifra]
© LaCuerda.net · aviso legal · privacidad · es · en · pt · contacto