Tablatura para Guitarra de Gustavo Cerati: Traeme la noche
Conexión · Inscripción
Letras y Acordes
Pantalla Completa
Imprimir
Versión Texto
Añadir Favorito
Otras Versiones

Mostrar Diagramas
Desfile Automático
Manipular Acordes
Formato del Texto


Traeme la noche(TAB)

Gustavo Cerati

calidad:
gcer0244
AUTOR: Sting
ALBUM: Outlandos D Americas
Enviado por Antonivs
Antes que se lancen a la tab una advertencia:
Andy Summers arpegea con los dedos. En éste tema Cerati tocaba
el bajo.

e|-----0----0---------0------0----------
B|---7----7-----7---5------5-------5----
G|--------------------------------------
D|-7----7-----7---6------6------6-------
A|--------------------------------------
E|--------------------------------------



e|-----0------0------0-------------0-------
B|---4----4/7----7/2----------2/9-------9--
G|-----------------------------------------
D|-4----4/7---7/2----------2/9------9------
A|-----------------------------------------
E|-----------------------------------------

Bien, solo me faltó la parte del coro, pero el tema en sí
es ésto.
Los que sepan arpegiar mas o menos rápido con los dedos
sacarán el tema con facilidad.
Para quienes quieran tocar la canción original "Bring on the
night" les sugiero que corran la tab 3 espacios
(si parte ésta en el 7o espacio, comiencen en el 10) manteniendo
la 1era cuerda al aire.
¿El coro de "bring on the night"?
Va:

xxx787
xxx9-10-9
xxx12-13-12
Este fichero es trabajo propio de su transcriptor y representa su interpretación personal de la canción. El material contenido en esta página es
para exclusivo uso privado, por lo que se prohibe su reproducción o retransmisión, así como su uso para fines comerciales.

© LaCuerda.net · Aviso Legal · Privacidad