Acordes de Guitarra » G »Gustavo Cerati » Amor Amarillo (Tab)

Amor Amarillo
Gustavo Cerati

Letras, Notas, Punteos, Tablaturas y Acordes de Guitarra (Tabs & Chords)

  • Letra y Acordes
    Bm F#   Bm  F#
    Adentro tuyo
    Bm F#     Bm F#
    caigo del sol
    Bm F#   Bm  F#
    Adentro tuyo
          E           F#8-F8-E8-F#8-F8-B8
    es unico, es unico
    
    Bm          F#m
    Cuerpos de luz
         Bm              F#m
    corriendo en pleno cielo
    Bm             F#m    Bm   F#m
    cristales de amor amarillo
            Bm           F#m
    no dejare que seas fria
           Bm       F#m
    yo podria calentarte
    Bm          F#m         D-D#-E-F
    
  • Letra y Acordes
    Intro: (A9  A9/B    A9  A9/B)x3        D
    
    A9  A9/B    A9  A9/B
    Adentro tuyo
    A9  A9/B    A9  A9/B
    caigo del sol
    A9  A9/B    A9  A9/B
    Adentro tuyo
          D           E7-D#7-D7(D7-C7)x2 D7   E7-D#7-A7*
    es unico, es unico
    
    A9  A9/B    A9  A9/B
    Cuerpos de luz
    A9  A9/B    A9  A9/B
    corriendo en pleno cielo
    A9  A9/B    A9  A9/B
    cristales de amor amarillo
    A9  A9/B    A9  A9/B
    no dejare que seas fria
    A9  A9/B    A9  A9/B
    
  • Tablatura
    Hola gente, este es mi primer tab, y como no podia ser de otra forma, es del
    gran dios Gustavo Cerati, desplegando su magia en un excelente tema como Amor
    Amarillo (1993).
    Vi otras tablaturas pero eran puros acordes, aca va la parte de los punteos,
    aunque me falta el solo que hace a los 2:06, y el que hace al final, despues
    de los 3:08... estaria bueno que si alguien los tiene los suba a la pagina...
    Si quieren escribir: tavo2006@hotmail.com
    Gracias totales
    
    
    (INTRO- se repite en 0:13, 2:20, 2:44 y 2:51)
    e---------------------|
    b--------2-----2------|
    g------2---------2----|	x 3
    d----4-------2-----2--|
    a--2-------4----------|
    e---------------------|
    
    0:10	(se repite en 0:34 y 2:41)
    e--------------|
    b--------10-9--|
    g------9-------|
    d----9---------|
    a--7-----------|
    e--------------|
    
    0:13	(INTRO)
    e---------------------|
    b--------2-----2------|
    g------2---------2----|	x 6
    d----4-------2-----2--|
    a--2-------4----------|
    e---------------------|
    
    0:34
    e---
  • Tab p/Bajo
    ok  aqui va:
    
    intro:
    
    G-0-0-0-0------------------------5-7-7-7-7-7-7-2
    D--------22222---4-4-4-2-5------2---------------
    A--------------5------------2-------------------
    E--------------3--------------5-----------------
    
    verse 1(tocalo con  distorsion media)
    G-7-8-9--7-8-9-------------55--55---22---33-----
    D--------------2----2----2---2----2----2----5---
    A---------------0-----0-------------------------
    E-----------------1-----1-1-------------------2-
    
    verse 2(con slap y pop)
    
    G--0-0----00---0-0--00---0--0--00--0-0----7-0-1-
    D------5-----5-----5---5---5--2---------5-------
    A-----------------------------------------------
    E-------0-----------------------------1---------
    
    outro :
    G-5-5--8------8--------5-----3-------3---00--1--
    D----6----2-2------2--------2-----2-------------
    A---------------2----2--------------2--2----6-7-
    E----------------3-------1----1----------------5
    
    
    
    ESO  ES TODO AMIGOS  LES GARANTIZO Q  ESTA LINEA DE BAJO ES 100 % CORRECTA :)
    TENGO TO
  • +
    ¡Colabora con nosotros!
    Envíanos tu versión de esta canción
  • Tutorial
    Amor amarillo (cover guitarra)
    - Gustavo Cerati.
    5:30

Letra de Amor Amarillo
Adentro tuyo
caigo del sol
Adentro tuyo
es unico, es unico
Cuerpos de luz
corriendo en pleno cielo
cristales de amor amarillo
no dejare que seas fria
yo podria calentarte
para abandonarme y renacer
Explosiones en tus ojos
agujeros en la tierra
y un verde profundo en el mar
hay algo en el aire
un detalle infinito
quiero que dure para siempre
Adentro tuyo
caigo del sol
Adentro tuyo
y es unico, es unico

Videos de Amor Amarillo
[ver más videos]

[ver todas las canciones]


© LaCuerda.net · Aviso Legal · Privacidad