Acordes de Guitarra » G »Guasones » Todavia (Tab)

Todavia
Guasones

Letras, Acordes y Tabs para Guitarra, Bajo y Ukulele

  • G          C           G          C
    todavia me resisto, a la absurda tentacion,
            G                Dsus4/F#
    de pisar el freno, no pasarla bueno,
           Em                       C
    disfrasarme de alguien que no soy.
    
         G           C              G          C
    todavia tengo amigos, que me quieren como soy
              G                    Dsus4/F#
    siempre un poco loco y, todo lo que toco,
         Em             C
    lo quiebro pido perdon.
    
    
    coro:
    
    D                   Am            C
     y aca me ves, escapandole al fuego que sigue quemando.
    D                   Am            C
    
  • e-----3--------------------------
    B-----3---3--1--0--1--0----------
    G---0---0------------------------
    D--------------------------------     X4 veces
    A--------------------------------
    E--------------------------------
    
    G          C           G          C
    Todavia me resisto, a la absurda tentacion,
            G                Bm
    de pisar el freno, no pasarla bueno,
           Em                       C
    disfrasarme de alguien que no soy.
    
         G           C              G          C
    todavia tengo amigos, que me quieren como soy
              G                    Bm
    siempre un poco loco y, todo lo que toco,
         Em             C
    lo quiebro pido perdon.
    
  •  G     C
    1----8-8-------------
    2-8b-----8b-10-8-10-8
    3--------------------
    4--------------------
    5--------------------
    6--------------------
    
    3:07 - 3:10
    G             C
    1-----------------------------
    2-----8-------8-------10-8-10-
    3-5/7---7-5/7---7-7/9---------
    4-----------------------------
    5-----------------------------
    6-----------------------------
    
    3:10 - 3:15
    G             Bm
    1---7---7-----7b-----------
    
  • e---------------------------------
    B---------------------------------
    G---------7-----7-5-4--4p5h4------
    D---5-----5---5-------------------      X4 veces
    A---------------------------------
    E---------------------------------
    
    Verso
    e---------------------------------
    B---------------------------------
    G---------7-----7-5-4--4p5h4------
    D---5-----5---5-------------------     x2( esto se va tocando mientras
    A---------------------------------         se empieza a cantar)
    E---------------------------------
    
    
    e--------------------------------------
    B--------------------------------------
    G---------7---------7---------4-4-5-7--
    D---5-----5----4----4----2------------5-
    
  • +
    ¡Colabora con nosotros!
    Envíanos tu versión de esta canción

Letra de Todavia
todavia me resisto, a la absurda tentacion,
de pisar el freno, no pasarla bueno,
disfrasarme de alguien que no soy.
todavia tengo amigos, que me quieren como soy
siempre un poco loco y, todo lo que toco,
lo quiebro pido perdon.
y aca me ves, escapandole al fuego que sigue quemando.
esa oracion, libertad, anciedad, un amor, soledad.
y asi vivi, mucho mejor ...
todavia siento ganas, de llamarla alguna vez,
y decirle que, cuando ella se fue,
un viento me arranco de pie.
todavia que respiro, nena cuando salgo a nadar,
por un mar oscuro, donde todo es duro,
y el agua se hace cristal.
todavia que me rió, del amor del cafe y de dormir,
y si lo sufri, fue casualidad,
un error nunca te hace mal.
todavia que te quiero, y no quiero quererte otra vez
pero si con vos, tanto me aleje,
que vole y jamas regrese.
los acordes...por las dudas
SALUDOS PARA LOS BUITRES A AGUANTE LA DOREE!!!
cualquier duda escribanme




[Todavia chords][Todavia cifra]
© LaCuerda.net · aviso legal · privacidad · es · en · pt · contacto