Acordes de Guitarra » G »Guaraná » Ay Carmela (Tab)

Ay Carmela
Guaraná

Letras, Notas, Punteos, Tablaturas y Acordes de Guitarra (Tabs & Chords)

  • Tablatura
    e|-7----------9--------9-11----------9-------9--|      
    a|----------------------------------------------|    
    d|----------------------------------------------|
    g|----------------------------------------------|
    b|---0---0-------0---0-------0----0----0---0----|
    e|-----0-----------0-----------0---------0------|
    
    se repite muchas veces.
    
    los acordes son: 
    
          E    A    B   E
     e|---7----5----7---7 
     a|---7----7----9---7
     d|---9----7----9---9
     g|---9----6----8---9
     b|---9----5----7---9
     e|---7----5----7---7
    
    se usan así:
    
  • +
    ¡Colabora con nosotros!
    Envíanos tu versión de esta canción

Letra de Ay Carmela
se repite muchas veces.
los acordes son:
se usan así:
* *
\ /
algo así
(*)significa un movimiento muy rápido
de dedos en la cuerda e (#1)

disfrútenla.

Videos de Ay Carmela
[ver más videos]

[ver todas las canciones]


© LaCuerda.net · Aviso Legal · Privacidad